Oops, an error
Loading. Please wait.

Work Of Art Tab

version 1
version 1

Whole song

Interactive

3,694 views 1 this week
1 commentread comment
1 2 3 4 5
excellent!
x 3
add to favorites
launch autoscroll
font size
0
reset
how to read this tab
guitar tuner
Autoscroll
slow
fast
+/-
esc
set tempo
stop
Help us to improve Ultimate-Guitar.com Take our survey!
×
Contributor
Difficulty
novice
------------------------------------------------------------------------
                                            Work of Art - Demi Lovato
------------------------------------------------------------------------
Tabbed by: Spence
Email: pointgodspence@hotmail.com

Tuning: Standard

Really simple, just a few parts.

Main riff: In case it is unclear, do not play them as chords. 
Hit the E/A string and then the D string. 
I recommend leaving your ring finger on the D string 
and then using your index finger for the first fret 
and your pinky for the fourth fret.

e|-------------------------------------------------------------------|
B|-------------------------------------------------------------------|
G|-------------------------------------------------------------------|
D|---3--3--3--3----3--3--3--3-----3--3--3--3---3---3---3---3---------|
A|------------------------------1--1--1--1---------------------------|
E|-1--1--1--1----4--4--4--4------------------1---1---1---1-----------|

Verse 1: X2

e|-------------------------------------------------------------------|
B|-------------------------------------------------------------------|
G|-------------------------------------------------------------------|
D|---3--3--3--3----3--3--3--3-----3--3--3--3---3---3---3---3---------|
A|------------------------------1--1--1--1---------------------------|
E|-1--1--1--1----4--4--4--4------------------1---1---1---1-----------|

Everyday is like a blank canvas
You know you can paint it anyway you want it
You can draw black clouds, you can make the sun shine
Color in a rainbow, or use black and white

Pre-Chorus:

e|-------------------------------------------------------------------|
B|-------------------------------------------------------------------|
G|-------------------------------------------------------------------|
D|--8-----6------8--------6---8--------------------------------------|
A|--8-----6------8--------6---8--------------------------------------|
E|--6-----4------6--------4---6--------------------------------------|
Open up your eyes and, your imagination

Chorus:

e|-------------------------------------------------------------------|
B|-------------------------------------------------------------------|
G|------------------8-8-8-8-8-8-8-8--3-3-3-3-3-3-3-3-3-3-3-3-3-3-3-3-|
D|-3-3-3-3-3-3-3-3--8-8-8-8-8-8-8-8--3-3-3-3-3-3-3-3-3-3-3-3-3-3-3-3-|
A|-3-3-3-3-3-3-3-3--6-6-6-6-6-6-6-6--1-1-1-1-1-1-1-1-1-1-1-1-1-1-1-1-|
E|-1-1-1-1-1-1-1-1---------------------------------------------------|
Come on let's write a song, a little poetry
Take a photograph, let's make some memories

e|----------------------------------------------------|
B|----------------------------------------------------|
G|------------------8-8-8-8-8-8-8-8--3-3--3-3---------|
D|-3-3-3-3-3-3-3-3--8-8-8-8-8-8-8-8--3-3--3-3---------|
A|-3-3-3-3-3-3-3-3--6-6-6-6-6-6-6-6--1-1--1-1---------|
E|-1-1-1-1-1-1-1-1------------------------------------|
You can make it anything that you want it to be
If you follow your heart, Life is a work of art

Fill:

e|----------------------------|
B|----------------------------|
G|----------------------------|
D|---3--3--3--3--3--3--3--3---|
A|----------------------------|
E|-1--1--1--1--1--1--1--1-----|

Verse 2: X2

e|-------------------------------------------------------------------|
B|-------------------------------------------------------------------|
G|-------------------------------------------------------------------|
D|---3--3--3--3----3--3--3--3-----3--3--3--3---3---3---3---3---------|
A|------------------------------1--1--1--1---------------------------|
E|-1--1--1--1----4--4--4--4------------------1---1---1---1-----------|
Every night's like looking at a dark screen
You're never too young or too old to dream
You can make your fantasies into a reality
Cause you're creating your own masterpiece

Pre-Chorus:

e|-------------------------------------------------------------------|
B|-------------------------------------------------------------------|
G|-------------------------------------------------------------------|
D|--8-----6------8--------6---8--------------------------------------|
A|--8-----6------8--------6---8--------------------------------------|
E|--6-----4------6--------4---6--------------------------------------|
Close your eyes and dream it, seeing is believing

Chorus: X2

e|-------------------------------------------------------------------|
B|-------------------------------------------------------------------|
G|------------------8-8-8-8-8-8-8-8--3-3-3-3-3-3-3-3-3-3-3-3-3-3-3-3-|
D|-3-3-3-3-3-3-3-3--8-8-8-8-8-8-8-8--3-3-3-3-3-3-3-3-3-3-3-3-3-3-3-3-|
A|-3-3-3-3-3-3-3-3--6-6-6-6-6-6-6-6--1-1-1-1-1-1-1-1-1-1-1-1-1-1-1-1-|
E|-1-1-1-1-1-1-1-1---------------------------------------------------|
Come on let's write a song, a little poetry
Take a photograph, let's make some memories

e|-------------------------------------------------------------------|
B|-------------------------------------------------------------------|
G|------------------8-8-8-8-8-8-8-8--3-3-3-3-3-3-3-3-3-3-3-3-3-3-3-3-|
D|-3-3-3-3-3-3-3-3--8-8-8-8-8-8-8-8--3-3-3-3-3-3-3-3-3-3-3-3-3-3-3-3-|
A|-3-3-3-3-3-3-3-3--6-6-6-6-6-6-6-6--1-1-1-1-1-1-1-1-1-1-1-1-1-1-1-1-|
E|-1-1-1-1-1-1-1-1---------------------------------------------------|
You can make it anything that you want it to be
If you follow your heart, Life is a work of art

Bridge:

e|----------------------------------------------------|
B|----------------------------------------------------|
G|--6-----8------3-------6-----8----------------------|
D|--6-----8------3-------6-----8-----6-----8----------|
A|--4-----6------1-------4-----6-----6-----8----------|
E|-----------------------------------4-----6----------|
Trying to simplify into Philosophy
Turn the star into a Galaxy
Make a little noise into a symphony
You're creating a masterpiece

Soft Chorus:

e|-------------------------------------------------------------------|
B|-------------------------------------------------------------------|
G|-------------------------------------------------------------------|
D|---3--3--3--3----3--3--3--3-----3--3--3--3---3---3---3---3---------|
A|------------------------------1--1--1--1---------------------------|
E|-1--1--1--1----4--4--4--4------------------1---1---1---1-----------|
Come on let's write a song, a little poetry
Take a photograph, let's make some memories

e|---------------------------------------------|
B|---------------------------------------------|
G|---------------------------------------------|
D|---3--3--3--3----3--3--3--3-----3--3--3--3---|
A|------------------------------1--1--1--1-----|
E|-1--1--1--1----4--4--4--4------------------1-|
You can make it anything that you want it to be
If you follow your heart, Life is a work of art

Chorus: X2

e|-------------------------------------------------------------------|
B|-------------------------------------------------------------------|
G|------------------8-8-8-8-8-8-8-8--3-3-3-3-3-3-3-3-3-3-3-3-3-3-3-3-|
D|-3-3-3-3-3-3-3-3--8-8-8-8-8-8-8-8--3-3-3-3-3-3-3-3-3-3-3-3-3-3-3-3-|
A|-3-3-3-3-3-3-3-3--6-6-6-6-6-6-6-6--1-1-1-1-1-1-1-1-1-1-1-1-1-1-1-1-|
E|-1-1-1-1-1-1-1-1---------------------------------------------------|
Come on let's write a song, a little poetry
Take a photograph, let's make some memories

e|-------------------------------------------------------------------|
B|-------------------------------------------------------------------|
G|------------------8-8-8-8-8-8-8-8--3-3-3-3-3-3-3-3-3-3-3-3-3-3-3-3-|
D|-3-3-3-3-3-3-3-3--8-8-8-8-8-8-8-8--3-3-3-3-3-3-3-3-3-3-3-3-3-3-3-3-|
A|-3-3-3-3-3-3-3-3--6-6-6-6-6-6-6-6--1-1-1-1-1-1-1-1-1-1-1-1-1-1-1-1-|
E|-1-1-1-1-1-1-1-1---------------------------------------------------|
You can make it anything that you want it to be
If you follow your heart, Life is a work of art

Outro: X2

e|-------------------------------------------------------------------|
B|-------------------------------------------------------------------|
G|------------------8-8-8-8-8-8-8-8--3-3-3-3-3-3-3-3-3-3-3-3-3-3-3-3-|
D|-3-3-3-3-3-3-3-3--8-8-8-8-8-8-8-8--3-3-3-3-3-3-3-3-3-3-3-3-3-3-3-3-|
A|-3-3-3-3-3-3-3-3--6-6-6-6-6-6-6-6--1-1-1-1-1-1-1-1-1-1-1-1-1-1-1-1-|
E|-1-1-1-1-1-1-1-1---------------------------------------------------|
Life is a work of art
Life is a work of art
Life is a work of art
Life is a work of art!

A great song! Listen to it to get timings down and of course, have fun with it!

-Spence

Lyrics:

Everyday is like a blank canvas
You know you can paint it anyway you want it
You can draw black clouds, you can make the sun shine
Color in a rainbow, or use black and white
Open up your eyes and, your imagination

Come on let's write a song, a little poetry
Take a photograph, let's make some memories
You can make it anything that you want it to be
If you follow your heart, Life is a work of art

Every night's like looking at a dark screen
You're never too young or too old to dream
You can make your fantasies into a reality
Cause you're creating your own masterpiece
Close your eyes and dream it, seeing is believing

(Repeat Two Times)

Come on let's write a song, a little poetry
Take a photograph, let's make some memories
You can make it anything that you want it to be
If you follow your heart, Life is a work of art

Trying to simplify into Philosophy
Turn the star into a Galaxy
Make a little noise into a symphony
You're creating a masterpiece
(Slow)
Come on let's write a song, a little poetry
Take a photograph, let's make some memories
You can make it anything that you want it to be
If you follow your heart, Life is a work of art

(Repeat Twice Like Beginning )
Come on let's write a song, a little poetry
Take a photograph, let's make some memories
You can make it anything that you want it to be
If you follow your heart, Life is a work of art

Life is a work of art
Life is a work of art
Life is a work of art
Life is a work of art

************************************

| /   slide up
| \   slide down
| h   hammer-on
| p   pull-off
| ~   vibrato
| +   harmonic
| x   Mute note
| b   Bend
| pb  Pre-bend
| br  Bend release
| pbr Pre-bend release
| brb Bend release bend

************************************
Suggest correction new What's this?
You can suggest a correction to this tab. Community and Mods will review your correction and vote to approve or reject it.
comments
We did not receive enough feedback on this tab! Please rate:
print report bad tab
1 2 3 4 5
1 comment total.
0 reply
slash0r 682 wrote on October 22 2010, 02:27 pm

Excellent tab, thanks.

guest
You may want to rate the tab now too:
select rating
Please do not post tabs as comments. Select "correction" instead!