Oops, an error
Loading. Please wait.

Naive Tab

1,681 views 1 this week
1 commentread comment
1 2 3 4 5
please rate
add to favorites
launch autoscroll
font size
0
reset
how to read this tab
guitar tuner
Tab Pro tools
  • play this tab
  • loop segment
  • change instrument
  • show fretboard
  • metronome
×
Best way to learn
"Naive"
Autoscroll
slow
fast
+/-
esc
set tempo
stop
Contributor
http://www.demiansmusic.com/

Not perfect, a few bits different in the verses but hope it helps

OPEN C:CGCGCE

p = pull off
h = hammer on
x = muted

Intro (x4)

(clean)
E|-10---10h12p10p8-----8---10-----10---10h12p10p8-----8---13-13----|
C|----0------------0-----0------0----0------------0-----0----------|
G|-----------------------------------------------------------------|
C|-------------------0--------0---------------------0--------------|
G|-----------------------------------------------------------------|
C|-----------------------------------------------------------------|


(Pause)

Intro II                (distortion)
E|-10---10h12p10p8------|-----0-0-0-0--0-0-0------0-0-0-0--0-0-0-----------|
C|----0------------0----|-----0-0-0-0--0-0-0------0-0-0-0--0-0-0-----------|
G|----------------------|-0---0-0-0-0--0-0-0---0--0-0-0-0--0-0-0-----------|
C|-------------------0--|-0---0-0-0-0--0-0-0---0--0-0-0-0--0-0-0-----------|
G|----------------------|-0---0-0-0-0--0-0-0---0--0-0-0-0--0-0-0-----------|
C|----------------------|-0--------------------0---------------------------|

E|-----0-0-0-0--0-0-0--------------------------------0-0-0-0--0-0-0--------|
C|-----0-0-0-0--0-0-0--------------------------------0-0-0-0--0-0-0--------|
G|--0--0-0-0-0--0-0-0--0--0-0----0-0-0-0-0-0-0-0--0--0-0-0-0--0-0-0--------|
C|--0--0-0-0-0--0-0-0--4--4-4--x-4/5-5-5-5/7-7-7--0--0-0-0-0--0-0-0--------|
G|--0--0-0-0-0--0-0-0----------x------------------0--0-0-0-0--0-0-0--------|
C|--0------------------4--4-4--x-4/5-5-5-5/7-7-7--0------------------------|

E|-7s9--9-9-9-10--10-10-10----0-0-0-0--0-0-0-------------------------------|
C|------0-0-0-0---0--0--0-----0-0-0-0--0-0-0-------------------------------|
G|---0--0-0-0-0---0--0--0--0--0-0-0-0--0-0-0--0--0-0----0-0-0-0-0-0-0-0--0-|
C|---0--0-0-0-0---0--0--0--0--0-0-0-0--0-0-0--4--4-4--x-4/5-5-5-5/7-7-7--0-|
G|---0--0-0-0-0---0--0--0--0--0-0-0-0--0-0-0----------x------------------0-|
C|---0---------------------0------------------4--4-4--x-4/5-5-5-5/7-7-7--0-|

Verse

(clean)
E|-10---10h12p10p8-----8---10-----10---10h12p10p8-----8-------------|
C|----0------------0-----0------0----0------------0-----0-----------|
G|------------------------------------------------------------------|
C|-------------------0--------0---------------------0---------------|
G|------------------------------------------------------------------|
C|------------------------------------------------------------------|


E|-10---10h12p10p8-----8---10-----10---10h12p10p8-----8-------------|
C|----0------------0-----0------0----0------------0-----0-----------|
G|------------------------------------------------------------------|
C|-------------------0--------0---------------------0---------------|
G|------------------------------------------------------------------|
C|------------------------------------------------------------------|

(disortion)
E|------------------------------------------------------------------|
C|------------------------------------------------------------------|
G|------------------------------------------------------------------|
C|-(4)---4-5s7~-----------------------------------------------------|
G|------------------------------------------------------------------|
C|---4-----------0--0-0--0-0--0-0--0-0-0--0-0--0-0--0-0--0-0--0-0-0-|

E|------------------------------------------------------------------|
C|------------------------------------------------------------------|
G|------------------------------------------------------------------|
C|------------------------------------------------------------------|
G|------------------------------------------------------------------|
C|-0-0--0-0--0-0--0-0--0-0-0--2-4--4-4--4-5--5-5--7-7-7-7-7-7-------|

E|------------------------------------------------------------------|
C|------------------------------------------------------------------|
G|------------------------------------------------------------------|
C|------------------------------------------------------------------|
G|------------------------------------------------------------------|
C|-0-0--0-0--0-0--0-0-0--0-0--0-0--0-0--0-0--0-0-0------------------|

E|------------------------------------------------------------------|
C|------------------------------------------------------------------|
G|------------------------------------------------------------------|
C|------------------------------------------------------------------|
G|------------------------------------------------------------------|
C|-0-0--0-0--0-0--0-0--0-0-0--2-4--4-4--4-5--5-5--7-7-7-7-7-7-------|

This is what I call a new day,
And whisper words before the dawn,
Fallen or gone I am your Angel,
Make my wings strong I'll keep your warm.

I was sitting tired but breathing,
Who'll be the soul who touched my skin.

Fly with me any time you want,
My wings are made of our dreams,
Come make me feel any thing you want,
Nobody will show you we're not real.

Fallen or gone I saw an Angel,
Reminding me of what you wished to be.
I was sitting tired but breathing,
Who'll be the hand who touched my skin.
This time I wont let them scar your wings,
Show them what they wished they'd never seen.

Come fly with me any time you want.
My wings are made of our dreams.
Come make me feel any thing you want,
Nobody will show you we're not....

Come take shelter anywhere you want,
Without you'll see and taste your fears,
Come and ask me anything you want,
To thank you for making me feel so...

This is what I call a new day (Come fly with me,)
This is what I call a new way, (Any where you want.)
My wings are made of our dreams.

This is what I call a new day (Come and ask me,)
This is what I call a new way, (Any thing you want.)
To thank you for making me feel so real.

Outro + (background)(Come and ask me anything you want).
comments
We did not receive enough feedback on this tab! Please rate:
print report bad tab
1 2 3 4 5
1 comment total.
0 reply
travislausch wrote on August 21 2011, 05:50 pm

Whatever happened to the other Demians tab(s) you posted?

And this one is BEGGING to be finished.

I want to post or [tab]
guest
You may want to rate the tab now too:
select rating
Please do not post tabs as comments. Select "correction" instead!