Oops, an error
Loading. Please wait.

Overhead Tab

253 views 1 this week
no commentswrite comment
1 2 3 4 5
please rate
add to favorites
launch autoscroll
font size
0
reset
how to read this tab
guitar tuner
Autoscroll
slow
fast
+/-
esc
set tempo
stop
Help us to improve Ultimate-Guitar.com Take our survey!
×
Tuning
C G C F A D
Drop C
  d
  a
  f
  c
  g
  C
|--------------------------------------------|
|-3-------------------------------5----------|
|-2-----5h4-5h4-5h4-5h4-4h2-------2----------|
|-0-------------------------------0----------| {repeat as necessary}
|-0-------------------------------0----------|
|-0-------------------------------0----------|
       [this bit's optional]
 [strum]                        [strum]

|-------------3----------------------|
|-1-----------3----3-----------------|
|-2-----------5----4-----------------|
|-3-----------5----5-----------------|
|-3-----------3----5-----------------|
|------------------------------------|
        [strum]

|----------------------------------|
|-1---------6-----3-----3----------|
|-2---------7-----4-----2----------|         "see me on your way down"
|-3---------8-----5-----0----------|
|-3---------8-----5-----0----------|
|-----------------------0----------|

|-----------------------------------|
|-----------------------------------|
|--10-----9-----7----7--------------|     "rain to take me away"
|--8------7-----5----0--------------|
|--8------7-----5----0--------------|
|--8------7-----5----0--------------|
        [this isn't accurate but it fits]

|---------------------------------------|
|---------------------------------------|
|---------------------------------------|
|---------------------------------------|
|---------------------------------------|
|-12p0-0-10p0-0-14p0-0-9p0-0-9h10p9p7p0-|

|---------------------------------------|
|---------------------------------------|
|---------------------------------------|
|---------------------------------------|
|---------------------------------------|
|-7p0-0-7p0-7p0-0-6p0-6p0-9p0-10p0------|

hope this helps
Suggest correction
What's this?
You can suggest a correction to this tab. Community and Mods will review your correction and vote to approve or reject it.
comments
We did not receive enough feedback on this tab! Please rate:
print report bad tab
1 2 3 4 5
guest
You may want to rate the tab now too:
select rating
Please do not post tabs as comments. Select "correction" instead!