Oops, an error
Loading. Please wait.

Infectious Hospital Waste Tab

version 1
version 1

Whole song

Interactive

6,921 views 15 this week
1 commentread comment
1 2 3 4 5
excellent!
x 6
add to favorites
launch autoscroll
font size
0
reset
how to read this tab
guitar tuner
Tab Pro tools
  • play this tab
  • loop segment
  • change instrument
  • show fretboard
  • metronome
×
Best way to learn
"Infectious Hospital Waste"
Autoscroll
slow
fast
+/-
esc
set tempo
stop
Contributor
Difficulty
Tuning
intermediate
D# G# C# F# A# D#
-------------------------------------------------------------------------------
	      Infectious Hospital Waste - Demolition Hammer
-------------------------------------------------------------------------------
Tabbed by: ampedsixstring
Email: amped6string@cox.net

Tuning: ½ step down


Timing is off and I didn’t put the palm mutes.



e|------------------------------------------|
B|------------------------------------------|
G|------------------------------------------| x4
D|------------------------3---2-------------|
A|----------------------5---5---3-2h3p2-----|
E|--0-000000-0-000000-0-----------------3---|

e|---------------------------------------------------------------------------|
B|---------------------------------------------------------------------------|
G|--9---------10-------------------------------------------------------------|
D|--9--8--12--10--2--------------2-------------2-----------------------------|
A|--7--8--12--8---2----7p5-7p5---2---7p5-7p5-8-2---7p5-7p5---5---------------|
E|-----6--10------0--0---------6-0-0-----------0-0---------6---6-5-3-5-6-5---|

    [Mandatory headbang]

e|----------------------------------------------------------------|
B|----------------------------------------------------------------|
G|----------------------------------------------------------------| x4
D|----------------------------------------------------------------|
A|------7p5-7p5---------7p5-7p5-8-------7p5-7p5---5---------------|
E|--0-0---------6-000-0-----------000-0---------6---6-5-3-5-6-5---|

e|----------------------------------------------------------------|
B|----------------------------------------------------------------|
G|----------------------------------------------------------------| x2
D|------------------------------5/7-------------------------8-7---|
A|----7-5-----5-7-8---7-5-------5/7---7-5-----5-7-8---7-5---8-7---|
E|--0-----6-0-------0-----6-6-5-3/5-0-----6-0-------0-----6-6-5---|

e|------------------------------------------------------|
B|------------------------------------------------------|
G|--9---------10--9-----------9---------10--9--9--------|
D|--9--8--12--10--9--8--5--7--9--8--12--10--9--9--------|
A|--7--8--12--8---7--8--5--7--7--8--12--8---7--7--------|
E|-----6--10---------6--3--5-----6--10------------15\---|

e|----------------------------------------------------------------|
B|----------------------------------------------------------------|
G|----------------------------------------------------------------| x4
D|------------------------------5/7-------------------------8-7---|
A|----7-5-----5-7-8---7-5-------5/7---7-5-----5-7-8---7-5---8-7---|
E|--0-----6-0-------0-----6-6-5-3/5-0-----6-0-------0-----6-6-5---|

e|------------------------------------------------------|
B|------------------------------------------------------|
G|--9---------10--9-----------9---------10--9--9--------|
D|--9--8--12--10--9--8--5--7--9--8--12--10--9--9--------|
A|--7--8--12--8---7--8--5--7--7--8--12--8---7--7--------|
E|-----6--10---------6--3--5-----6--10------------15\---|

e|----------------------------------------------------------------|
B|----------------------------------------------------------------|
G|----------------------------------------------------------------| x4
D|------------------------------5/7-------------------------8-7---|
A|----7-5-----5-7-8---7-5-------5/7---7-5-----5-7-8---7-5---8-7---|
E|--0-----6-0-------0-----6-6-5-3/5-0-----6-0-------0-----6-6-5---|

e|------------------------------------------------------|
B|------------------------------------------------------|
G|--9---------10--9-----------9---------10--9--9--------|
D|--9--8--12--10--9--8--5--7--9--8--12--10--9--9--------|
A|--7--8--12--8---7--8--5--7--7--8--12--8---7--7--------|
E|-----6--10---------6--3--5-----6--10------------15\---|

e|----------------------------------------------------------------|
B|----------------------------------------------------------------|
G|--------------------------------10------------------------------|
D|----------------8---------------10--------------8---------5-7---|
A|----------------8---------------8---------------8---------5-7---|
E|--0-0-0-0-0-0-0-6-0-0-0-0-0-0-0---0-0-0-0-0-0-0-6-0-0-0-0-3-5---|
							      x3
e|----------------------------------------------------------------|
B|----------------------------------------------------------------|
G|--------------------------------10------------------------------|
D|----------------8---------------10--------------8---------8-7---|
A|----------------8---------------8---------------8---------8-7---|
E|--0-0-0-0-0-0-0-6-0-0-0-0-0-0-0---0-0-0-0-0-0-0-6-0-0-0-0-6-5---|

e|---------------------------------------------------------|
B|---------------------------------------------------------|
G|---------------------------------------------9\7--7/10---| x2
D|----------------8--7-------------------------9\7--5/10---|
A|----------------8--7-------------------------7\5--5/8----|
E|--0-000-000-000-6--5-0-000-000-000-000-000-0-------------|


e|-------------------------------------|
B|-------------------------------------|
G|--------------------------9\7--7/10--| x2
D|--------------------------9\7--5/10--|
A|--------------------------7\5--5/8---|
E|--0-000-000-000-000-000-0------------|

e|----------------------------|
B|----------------------------|
G|----------------------------|
D|--2-0-----------------------|
A|------3-0-2-3-----2-----0---|
E|--------------3-5---2-3-----|

e|--------------------------------------------------------------------|
B|--------------------------------------------------------------------|
G|----------2---------------2-4-5---------2---------------------------| x4
D|--4-------2---------------2-4-5-4-------2---------------------------|
A|--4-------0---------------0-2-3-4-------0---------------------------|
E|--2-2-2-2---2-2-2-2-2-2-2-------2-2-2-2---2-2-2-00000000000000000---|

e|-------------------------------------------------------------|
B|-------------------------------------------------------------|
G|-------------------------------------------------------------| x4
D|-------------------------------------------------------------|
A|----------0----------0-2-3---------0-------------------------|
E|--0h222-2---2-2222-2-------0h222-2---2-2-00000000000000000---|

[solo]

e|-------------------------------------------------------------------|
B|-------------------------------------------------------------------|
G|----------2---------------2-4-5----------2-------------------------| x2
D|--4-4-4-4-2-4-4-4-4-4-4-4-2-4-5--4-4-4-4-2-4-4-4-2-2-2-2-2-2-2-2---|
A|--4-4-4-4-0-4-4-4-4-4-4-4-0-2-3--4-4-4-4-0-4-4-4-2-2-2-2-2-2-2-2---|
E|--2-2-2-2---2-2-2-2-2-2-2--------2-2-2-2---2-2-2-0-0-0-0-0-0-0-0---|

e|-------------------------------------------------------------|
B|-------------------------------------------------------------|
G|------------5-8-7-----------5-8-7-----------5-8-7------------| x5
D|------------5-8-7-----------5-8-7-----------5-8-7------------|
A|------------3-6-5-----------3-6-5-----------3-6-5--6-----5---|
E|--444444444-------444444444-------444444444----------7-6-----|

e|-------------------------------------------------------------|
B|-------------------------------------------------------------|
G|------------2-5-4-----------2-5-4-----------2-5-4------------| x4
D|------------2-5-4-----------2-5-4-----------2-5-4--3-----2---|
A|------------0-3-2-----------0-3-2-----------0-3-2----4-3-----|
E|--222222222-------222222222-------222222222------------------|

e|-------------------------------------------------------------|
B|-------------------------------------------------------------|
G|--------9---------10--9-----------9---------10--9--9---------|
D|--2--2--9--8--12--10--9--8--5--7--9--8--12--10--9--9---------|
A|--2--2--7--8--12--8---7--8--5--7--7--8--12--8---7--7---------|
E|--0--0-----6--10---------6--3--5-----6--10------------15\----|

e|----------------------------------------------------------------|
B|----------------------------------------------------------------|
G|----------------------------------------------------------------| x4
D|------------------------------5/7-------------------------8-7---|
A|----7-5-----5-7-8---7-5-------5/7---7-5-----5-7-8---7-5---8-7---|
E|--0-----6-0-------0-----6-6-5-3/5-0-----6-0-------0-----6-6-5---|

e|----------------|
B|----------------|
G|--9---------10--|
D|--9--8--12--10--|
A|--7--8--12--8---|
E|-----6--10------|

[Crazy bass line]

e|------------------------------------------------------------------------|
B|------------------------------------------------------------------------|
G|------------------------------------------------------------------------|
D|------------------------------------------------------------------------|
A|----3---2---1---0-------------3---2---1---0-------------3---2---1---0---|
E|--2---2---2---2---222232222-2---2---2---2---222232222-2---2---2---2-----|

e|------------------------------|
B|------------------------------|
G|------------------------------| x4
D|------------------------------|
A|--------------5---4---3---2---|
E|--444454444-4---4---4---4-----|

e|------------------------------|
B|------------------------------|
G|------------------------------| x4
D|------------------------------|
A|--------------3---2---1---0---|
E|--222232222-2---2---2---2-----|

e|------------------------------------------------------------------------|
B|------------------------------------------------------------------------|
G|------------------------------------------------------------------------|
D|--4--5--2--7--4--5--2--5--5--5--5--4--5--2--5--4--5--2--5--5--5--5--4---|
A|--4--5--2--7--4--5--2--5--5--5--5--4--5--2--5--4--5--2--5--5--5--5--4---|
E|--2--3--0--5--2--3--0--3--3--3--3--2--3--0--3--2--3--0--3--3--3--3--2---|




************************************

| /   slide up
| \   slide down
| h   hammer-on
| p   pull-off
| ~   vibrato
| +   harmonic
| x   Mute note
| b   Bend
| pb  Pre-bend
| br  Bend release
| pbr Pre-bend release
| brb Bend release bend

************************************
comments
print report bad tab
1 comment total.
0 reply
Thrashin' Bob wrote on August 27 2010, 06:43 pm

Dude, nice tab man!!

Learned the whole song from this.

I want to post or [tab]
guest
You may want to rate the tab now too:
select rating
Please do not post tabs as comments. Select "correction" instead!