Oops, an error
Loading. Please wait.

Annihlate The Corrupt Tab

1,900 views 6 this week
7 commentsread comments
1 2 3 4 5
excellent!
x 6
add to favorites
launch autoscroll
font size
0
reset
how to read this tab
guitar tuner
Tab Pro tools
  • play this tab
  • loop segment
  • change instrument
  • show fretboard
  • metronome
Autoscroll
slow
fast
+/-
esc
set tempo
stop
Difficulty
Tuning
novice
E A D G B E
Freakin easy awesome song!

I believe Demon Hunter uses Drop B tuning (B# G# B# E# A D, but I'm really not sure I'm a beginner)

h = Hammer-on
PM = palm-mute

Intro 1/verse
-----------------------------------|
-----------------------------------|
-----------------------------------|
--77777777-----7777777777----------| (there's something between that if you
--77777777-----7777777777----------|  know how to make that sound on guitar
-----------------------------------|   put it as a comment)

Intro part 2 (main riff)
----------------------------------|
----------------------------------|
----------------------------------|
--1-1-1/2-0----1-1/2-0------------| (play the second part fairly fast)
--1-1-1/2-0----1-1/2-0------------|
--1-1-1/2-0----1-1/2-0------------|

Pre-Chorus
--------------------------|
--------------------------|
--------------------------|
---0000---------00--------|
---0000-5-------00--5h6---|
---0000---------00--------|
PM xxxx         xx
Chorus
-------------------------|
-------------------------|
-------------------------| (there's also what sounds like a keyboard, but I
---2----5----0-----10----|  can't tab it out. It would be useful for the
---2----5----0-----10----|  last chorus.)
---2----5----0-----10----|

Interlude part 1
--------------|
--------------|
--------------|
--------------|
-----9--8-----|
-----9--8-----|

Interlude part 2
----------------|
----------------|
----------------|
----------------|
--0-0-5-0-7-0-8-|  (palm muted first 2x, then no PM.)
----------------|
comments
print report bad tab
7 comments total. Showing first comments.
+2 reply
ninjuice wrote on June 7 2006, 06:07 pm

hmm looks like I wasn't logged in the bridge part 2 actually goes:

F#----0-0-5-0-7-0-8-0-

+1 reply
haste/the/day wrote on June 28 2007, 08:25 pm

wow this is an easy song. sounds great to me.

+1 reply
rockforjesus703 wrote on January 21 2008, 08:22 pm

nice one this is one of my favorite songs by dh

I want to post or [tab]
guest
You may want to rate the tab now too:
select rating
Please do not post tabs as comments. Select "correction" instead!