Oops, an error
Loading. Please wait.

Beheaded Tab

2,078 views 1 this week
10 commentsread comments
1 2 3 4 5
accurate
x 5
add to favorites
launch autoscroll
font size
0
reset
how to read this tab
guitar tuner
Tab Pro tools
  • play this tab
  • loop segment
  • change instrument
  • show fretboard
  • metronome
×
Best way to learn
"Beheaded"
Autoscroll
slow
fast
+/-
esc
set tempo
stop
Contributor
Tabbed by: Sean Moser and John Lusky
Email: punkpreacha7@msn.com

Beheaded- Demon Hunter
Tuning: A whole step down and drop B# (B#G#B#E#AD)
* = Mute
. = Palm mute
Intro Riff:
D------------------|
A------------------|
E#-----------------|
B#-7-1-2-3-7-1-2-3-|
G#-7-1-2-3-7-1-2-3-|
B#-7-1-2-3-7-1-2-3-|
2x

Intro Part II/Verse:
(during verse do not mute)
D--------------------------------------------------
A--------------------------------------------------
E#-------------------------------------------------
B#-7-0-0-7-0-0-7-0-0-7-0-7-6-0-0-6-0-0-6-0-0-6-0-6-
G#-7-0-0-7-0-0-7-0-0-7-0-7-6-0-0-6-0-0-6-0-0-6-0-6-
B#-7-0-0-7-0-0-7-0-0-7-0-7-6-0-0-6-0-0-6-0-0-6-0-6-
     * *   * *   * *   *     * *   * *   * *   *
D--------------------------|
A--------------------------|
E#-------------------------|
B#-3-0-0-3-0-0-3-0-0-3-0-3-|
G#-3-0-0-3-0-0-3-0-0-3-0-3-|
B#-3-0-0-3-0-0-3-0-0-3-0-3-|
     * *   * *   * *   *

Pre-Chorus (Mike's part):
D--------------------------------|
A--------------------------------|
E#-------------------------------|
B#-7-7-7-7---6-6-6-6---3-3-3-3---|
G#-7-7-7-7---6-6-6-6---3-3-3-3---|
B#-7—7-7-7---6-6-6-6---3-3-3-3---|

Chorus:
D----------------------------------
A----------------------------------
E#---------------------------------
B#-0-0-0---0-0---0-0-0---0-0-7-1-2-
G#-0-0-0---0-0---0-0-0---0-0-7-1-2-
B#-0-0-0---0-0---0-0-0---0-0-7-1-2-
   . . .   . .   . . .   . .       
D----------------------------------|
A----------------------------------|
E#---------------------------------|
B#-0-0-0-0-0-0-0-0-0-0-0-0-0-7-1-2-|
G#-0-0-0-0-0-0-0-0-0-0-0-0-0-7-1-2-|
B#-0-0-0-0-0-0-0-0-0-0-0-0-0-7-1-2-|
   . . . . . . . . . . . . .

Bridge:
D------------------|
A------------------|
E#-----------------|
B#-0--/7---6---2-3-|
G#-0--/7---6---2-3-|
B#-0--/7---6---2-3-|

If you do not have the new Demon Hunter CD "Summer of Darkness"...go get it!
It is amazing.  This is a great song too.  Email me with any questions.
In Christ,
Chalice of Insanity <>< \m/
comments
print report bad tab
10 comments total. Showing first comments. show 1 bad comment
+3 reply
Snakepit5490 wrote on May 17 2004, 12:00 am

yeah, it is a very good cd

0 reply
hunteroath wrote on November 26 2004, 12:00 am

you had a few errors on your tabs so i fixed them


-------------------|
A------------------|
E#-----------------|
B#-7-1-2-3-7-1-2-3-|
G#-7-1-2-3-7-1-2-3-|
B#-7-1-2-3-7-1-2-3-|
2x

Intro Part II/Verse:
(during verse do not mute) 2x
D---------------------------------------|--------------------|
A---------------------------------------|--------------------|
E#--------------------------------------|--------------------|
B#-7-0-7-0-7-0-7-0-77-6-0-6-0-6-0-6-0-66|-3-0-3-0-3-0-3-0-33-|
G#-7-0-7-0-7-0-7-0-77-6-0-6-0-6-0-6-0-66|-3-0-3-0-3-0-3-0-33-|
B#-7-0-7-0-7-0-7-0-77-6-0-6-0-6-0-6-0-66|-3-0-3-0-3-0-3-0-33-|
* * * * * * * * | * * * *

Pre-Chorus (Mike's part):
D----------------------------|
A----------------------------|
E#---------------------------|
B#-7-7-7---6-6-6---3-3-3-3---|
G#-7-7-7---6-6-6---3-3-3-3---|
B#-7?7-7---6-6-6---3-3-3-3---|

Chorus:
D---------------------------------------
A---------------------------------------
E#--------------------------------------
B#-0-0-0-0---0-0-0-0---0-0-0-0---7-1-2-3 4x
G#-0-0-0-0---0-0-0-0---0-0-0-0---7-1-2-3
B#-0-0-0-0---0-0-0-0---0-0-0-0---7-1-2-3
* * * * * * * * * * * *
D----------------------------------|
A----------------------------------|
E#---------------------------------|
B#-000000000000000000000000-7-1-2-3| 2x
G#-000000000000000000000000-7-1-2-3|
B#-000000000000000000000000-7-1-2-3|


Bridge:
D------------------|
A------------------|
E#-----------------|
B#-0--/7---6---2-3-|
G#-0--/7---6---2-3-|
B#-0--/7---6---2-3-|

I want to post or [tab]
guest
You may want to rate the tab now too:
select rating
Please do not post tabs as comments. Select "correction" instead!