Oops, an error
Loading. Please wait.

Blood In The Tears Tab

version 1
version 1

Whole song

3,870 views 9 this week
1 commentread comment
1 2 3 4 5
x 3
add to favorites
launch autoscroll
font size
0
reset
how to read this tab
guitar tuner
Autoscroll
slow
fast
+/-
esc
set tempo
stop
Help us to improve Ultimate-Guitar.com Take our survey!
×
Author
Difficulty
intermediate

Guitar 1

e---16------16------------------------|
B-------16~---17-16-------------------|
G-----16-----------16-----------------|    repeat this...intro, this is the riff for
D---------------------       Guitar 1-|
A-------------------------------------|
E-------------------------------------|


Guitar 2

e---------------------|
B---------------------|
G-----8------8--------|   same...repeat this thing...this is the riff for
D---9------9----------|        sec guitar
A-7-------------------|
E--------9------------|

   prechorus/chorus
  C#m B           E   B   A  AsB  E
e--------/       ----------------------------|
B--------/Chorus ----------------------------|
G--------/       -----4~~-2~~2s4--9~~-4~~-2~-|
D-11~-9~-/       -2~~-4~~-2~~2s4--9~~-4~~-2~-|
A-11~-9~-/       -2~~-2~~-0~~0s2--7~~-2~~-0~-|
E--9~-7~-/       -0~~------------------------|

Solo
 Guitar 2 does the intro riff

 Guitar 1

e-------------------------------------------------------------------------|
B------12-----------------------------------------------------------------|
G--11b(keep bend)11b-11r-9-8-8h9r8--------------8-9-9-8-------------------|
D----------------------------------9h11r9--9-11---------11-9--------------|
A------------------------------------------------------------9br--7h9r7---|
E-----------------------------------------------------------------------9-|

bridge break

 Guitar 2


e---------------------|
B---------------------|      D -x9x
G---------------------|      A -x9x
D-x9x-x7x-x9x--7s9~---|      E -x7x  play this powerchord muted with your
A-x9x-x7x-x9x--7s9~---|                       right hand
E-x7x-x5x-x7x--5s7~---|  repeat this

   Guitar 1 [not sure about this] and dont know what effect is used
e-------------------------------------------|
B-------------------------------------------|
G----9~~~-9~~~---11-11bmax~~~-9h11h9-9~~~---|
D-------------------------------------------|
A-------------------------------------------|
E-------------------------------------------|

The end is same as bridge...

    GOOD LUCK!

This is first tab! IF there is anything wrong...mail rAv3n_Ghowl@yahoo.com
Suggest correction
Give kudos to tab author, rate the tab!
1 2 3 4 5
comments
print report bad tab
1 comment total.
0 reply
Crucifix111 10 Mar 01, 2013 02:13 PM

This is pretty good except when I played it with the track they actually play the intro on the 17th fret. So just wanted to point that out.

guest
You may want to rate the tab now too:
select rating
Wanna post a correction for this tab? Suggest correction