Oops, an error
Loading. Please wait.

Carry Me Down Tab

version 3
version 3

Whole song

Interactive

826 views 3 this week
no commentswrite comment
1 2 3 4 5
3 more votes to show rating
add to favorites
launch autoscroll
font size
0
reset
how to read this tab
guitar tuner
Autoscroll
slow
fast
+/-
esc
set tempo
stop
Help us to improve Ultimate-Guitar.com Take our survey!
×
Author
Difficulty
Tuning
novice
B F# B E G# C#
-------------------------------------------------------------------------------
                             Carry Me Down - Demon Hunter
-------------------------------------------------------------------------------
Tabbed by: I
E-mail:Negativetimeparadox@gmail.com (contact me if you have anything to add/say nasty
things to me)

Great song by Demon Hunter, easy to play, easy to sing, and very fun gig to do with
another acoustic guitarist. :D

Tuning: Drop B (C#G#EBF#B)

intro: Distortion:
C# |----------------------------------------------------------|
G# |----------------------------------------------------------|
E  |----------------------------------------------------------|
B  |---------------------0----------3---------0-------3-------|
F# |----0----------------0----------3---------0-------3-------|
B  |--------5--0--3--5---0----------3---------0-------3-------|

Acoustic: (At the strum of each power chord from above, play this acoustic arpeggio,
this repeats with each strum of the distorted power chord, and doesn't change throughout
the verse).
|------------------------------------------------|
|------------------------------------------------|
|--------------------------2---------------------|
|-----------------------5-----5------------------|
|---------------------5--------------------------|
|------------------------------------------------|
Verse: Distortion
|----------------|
|----------------|
|----------------|
|----0-----3-----| x4
|----0-----3-----|
|----0-----3-----|

Verse: Acoustic (This is synchronous with the distortion above)
|-------------|
|-------------|
|--------2----|
|------5---5--| x4
|----5--------|
|-------------|

Bridge: Distortion (Acoustic guitar is only played during the verse)
(The x8, and x2 are rapidly struck)
|---------------------------------------------------|
|---------------------------------------------------|
|---------------------------------------------------| x2
|------8------3-----5----0--------------------------|
|------8-x8---3-x2--5-x2-0-let ring-----------------|
|------8------3-----5----0--------------------------|

Chorus: Distortion
|---------------------------------------------------|
|---------------------------------------------------|
|---------------------------------------------------|
|----8-----3----0----3------------------------------|
|----8-----3----0----3---x2-------------------------|
|----8-----3----0----3------------------------------|

Chorus: (Continued) Distortion
|------------------------------------------------------------------|
|------------------------------------------------------------------|
|------------------------------------------------------------------|
|--------------------------------------------------10--------------|
|--------------------------------------------------10--------------|
|-5-5-5-5--7-7-7-7--8-8-8-8--12-12-12-12--8-8-8-8--10--------------|

Chorus: (Continued) Distortion
|----------------------------------------------------------|
|----------------------------------------------------------|
|----------------------------------------------------------|
|---8----3----0----3---------------------------------------|
|---8----3----0----3---------------------------------------|
|---8----3----0----3---------------------------------------|

Verse: Distortion
|------------------------------------------------------------|
|------------------------------------------------------------|
|------------------------------------------------------------| x4
|-----------------0----3-------------------------------------|
|--0--------------0----3-------------------------------------|
|----5--0--3h5----0----3-------------------------------------|

Acoustic: Same tab as above. (Again, this is synchronous with the distortion above). x4

Bridge:
|------------------------------------------------------------|
|------------------------------------------------------------|
|------------------------------------------------------------| x4
|----8----3---5---0------------------------------------------|
|----8----3---5---0------------------------------------------|
|----8----3---5---0------------------------------------------|

Chorus: Distortion
|---------------------------------------------------|
|---------------------------------------------------|
|---------------------------------------------------|
|----8-----3----0----3------------------------------|
|----8-----3----0----3---x2-------------------------|
|----8-----3----0----3------------------------------|

Chorus: (Continued) Distortion
|------------------------------------------------------------------|
|------------------------------------------------------------------|
|------------------------------------------------------------------|
|--------------------------------------------------10--------------|
|--------------------------------------------------10--------------|
|-5-5-5-5--7-7-7-7--8-8-8-8--12-12-12-12--8-8-8-8--10--------------|

Chorus: (Continued) Distortion
|----------------------------------------------------------|
|----------------------------------------------------------|
|----------------------------------------------------------|
|---8----3----0----3---------------------------------------|
|---8----3----0----3---------------------------------------|
|---8----3----0----3---------------------------------------|

Bridge 2:
|------------------------------------------------------------------|
|------------------------------------------------------------------|
|------------------------------------------------------------------| x4
|---3-----5-----0--------------------------------------------------|
|---3-x6--5-x2--0--------------------------------------------------|
|---3-----5-----0--------------------------------------------------|

Solo:
|--------------------------------------------------------|
|--------------------------------------------------------|
|---12----------12---------------------------------------|
|------15-14-15----15-14b/1/2\-12--------10--------------|
|----------------------------------10h12-----------------|
|--------------------------------------------------------|

Solo: (Continued)
|--------------------------------------------------------|
|--------------------------------------------------------|
|---12----------12---------------------------------------|
|------15-14-15----15-14b/1/2\-----12--10----------------|
|-------------------------------15--------12v------------|
|--------------------------------------------------------|


Final Chorus: Distortion
|----------------------------------------------------------|
|----------------------------------------------------------|
|----------------------------------------------------------|
|---8----3----0----3---------------------------------------|
|---8----3----0----3---------------------------------------|
|---8----3----0----3---------------------------------------|

Chorus: (Continued) Distortion
|------------------------------------------------------------------|
|------------------------------------------------------------------|
|------------------------------------------------------------------|
|--------------------------------------------------10--------------|
|--------------------------------------------------10--------------|
|-5-5-5-5--7-7-7-7--8-8-8-8--12-12-12-12--8-8-8-8--10--------------|

Chorus: (Continued) Distortion
|----------------------------|
|----------------------------|
|----------------------------| x3
|---8----3----0----3---------|
|---8----3----0----3---------|
|---8----3----0----3---------|

Chorus: (Continued) Distortion
|------------------------------------------------------------------|
|------------------------------------------------------------------|
|------------------------------------------------------------------|
|--------------------------------------------------10--------------|
|--------------------------------------------------10--------------|
|-5-5-5-5--7-7-7-7--8-8-8-8--12-12-12-12--8-8-8-8--10--------------|

Chorus: (Continued) Distortion
|----------------------------|
|----------------------------|
|----------------------------|
|---8----3----0----3---------|
|---8----3----0----3---------|
|---8----3----0----3---------|

Outro:

|-------------------------------------------------|
|-------------------------------------------------|
|-------------------------------------------------| Let Ring
|---8---5---0---3---5-----------------------------|
|---8---5---0---3---5-----------------------------|
|---8---5---0---3---5-----------------------------|




************************************
Sorry... I didn't feel like endlessly attempting chords till I find the ones they use in
that little acoustic part at the end. The closest thing I can come to is something with
drop d power chords and an added 9 with them. You're looking for E, C, B, and G. Not in 
that order, but that's the key of the chords.
I'm not 100% it's extremely difficult because of all the layers of instruments at the
chorus and such, so correct me if I'm wrong with the chorus.
Suggest correction
Give kudos to tab author, rate the tab!
1 2 3 4 5
comments
print report bad tab
guest
You may want to rate the tab now too:
select rating
Wanna post a correction for this tab? Suggest correction