Oops, an error
Loading. Please wait.

Deteriorate Tab

version 2
version 2

Whole song

Interactive

3,445 views 3 this week
no commentswrite comment
1 2 3 4 5
accurate
x 3
add to favorites
launch autoscroll
font size
0
reset
how to read this tab
guitar tuner
Autoscroll
slow
fast
+/-
esc
set tempo
stop
Help us to improve Ultimate-Guitar.com Take our survey!
×
Tuning
D A D G B E
Intro - (x4)
E---------------------------------------------------------------------|
B---------------------------------------------------------------------|
G-------4-------------------------------------------------------------|
D-----2---2----------9-----------4------------------------------------|
A------------------6---6-------2---2----------------------------------|
D---0-------------6-----------2---------------------------------------|
Verse 1 
listen to get struming right
E-----------------------------------------------------------------|
B-----------------------------------------------------------------|
G-----------------------------------------------------------------|
D----------9-------2-----------------9-------2-------1------------|
A----------9-------2-----------------9-------2-------1------------|
D----------9-------2-----------------9-------2-------1------------|
Pre-Chorus x2
E-----------------------------------------------------------------------|
B-----------------------------------------------------------------------|
G-----------------------------------------------------------------------|
D----7----7---6----6------11------11-----9-----9------------------------|
A---7-7--7---6-6--6-----9---9----9-----9--9---9-------------------------|
D--7----7---6----6-----9--------9-----9------9--------------------------|
Chorus x2
gtr2 keeps playing the 4 while gtr1 plays the other part
E------------------------------------------------------------------------|
B------------------------------------------------------------------------|
G-----------------------------------11--11--11----13--13--13---9--9--9---|
D-------7----------------------4----X---X---X-----X---X---X----X--X--X---|
A-------7-----------0----------4----9---9---9-----11--11--11---7--7--7---|
D-------7-----------0----------4-----------------------------------------|


E-------------------------------------------------------------------|
B-------------------------------------------------------------------|
G-------------------------------------------------------------------|
D-------------7----------7-----------6------------------------------|
A---------7----7------7-----------6----6----------------------------|
D-----7-----------7-----------6-------------------------------------|
Verse 2
E--------------------------------------------------------------|
B--------------------------------------------------------------|
G--------------------------------------------------------------|
D-----------9--------2------------9-------2-------1------------|
A-----------9--------2------------9-------2-------1------------|
D-----------9--------2------------9-------2-------1------------|
Pre-Chorus x2
E----------------------------------------------------------------------|
B----------------------------------------------------------------------|
G----------------------------------------------------------------------|
D----7----7---6-----6-----11-----11-----9-----9------------------------|
A---7-7--7---6-6---6----9---9---9-----9--9---9-------------------------|
D--7----7---6-----6----9-------9-----9------9--------------------------|
Chorus x2 
E------------------------------------------------------------------------|
B------------------------------------------------------------------------|
G-----------------------------------11--11--11----13--13--13---9--9--9---|
D-------7----------------------4----X---X---X-----X---X---X----X--X--X---|
A-------7-----------0----------4----9---9---9-----11--11--11---7--7--7---|
D-------7-----------0----------4-----------------------------------------|

E----------------------------------------------------------------------|
B----------------------------------------------------------------------|
G---------------------------------------9---9---9--------9---9---9-----|
D--00000000---22222222---77777777-------X---X---X--------X---X---X-----|3x
A--00000000---22222222---77777777--0-0--7---7---7--0--0--7---7---7-----|
D--00000000---22222222---77777777--0-0-------------0--0----------------|
Intro - x3
E---------------------------------------------------------------------|
B---------------------------------------------------------------------|
G-------4-------------------------------------------------------------|
D-----2---2----------9-----------4------------------------------------|
A---2---------------6---6-------2---2---------------------------------|
D-----------------6-----------2---------------------------------------|
                                                          0----2 
while gtr play below gtr plays intro during the time from 0----2
gtr 1 plays the rest with gtr 2
E----------------------------------------------------------------------|
B----------------------------------------------------------------------|
G---------------------------------11--11--11----13--13--13---9--9--9---|
D---------------------------------X---X---X-----X---X---X----X--X--X---|
A----0------6--------22222222-----9---9---9-----11--11--11---7--7--7---|
D----0------6--------22222222------------------------------------------|
Outro Chorus x2 
E------------------------------------------------------------------------|
B------------------------------------------------------------------------|
G-----------------------------------11--11--11----13--13--13---9--9--9---|
D-------7----------------------4----X---X---X-----X---X---X----X--X--X---|
A-------7-----------0----------4----9---9---9-----11--11--11---7--7--7---|
D-------7-----------0----------4-----------------------------------------|
end
E-------------------------------------------------------------------|
B-------------------------------------------------------------------|
G-------------------------------------------------------------------|
D-------4--------7--------4-------2---------------------------------|
A-------4--------7--------4-------2---------------------------------|
D-------4--------7--------4-------2---------------------------------| 
Suggest correction new What's this?
You can suggest a correction to this tab. Community and Mods will review your correction and vote to approve or reject it.
comments
We did not receive enough feedback on this tab! Please rate:
print report bad tab
1 2 3 4 5
guest
You may want to rate the tab now too:
select rating
Please do not post tabs as comments. Select "correction" instead!