Oops, an error
Loading. Please wait.

Half As Dead chords

version 1
version 1

Whole song

Interactive

49 views 3 this week
no commentswrite comment
1 2 3 4 5
2 more votes to show rating
add to favorites
×
Save as Personal and add changes to this tab that will be seen only by you. Learn more ›
×
You can save this tab as Personal to edit and correct it or add notes. All changes will be seen only by you. Learn more »
launch autoscroll
font size
0
reset
transpose
0
reset
display chords
guitar tuner
edit
Autoscroll
slow
fast
+/-
esc
set tempo
stop
Strumming
There is no strumming pattern for this song yet. and get +5 IQ
Title: Half as dead
Artist: Demon Hunter
Album: OVTLIVE
Words: Ryan Clark
Music: Demon Hunter
Copyright: Demon Hunter
Solid State Records
Year 2017
Tabber: metald74
Tempo = 101
Rhythm

  [Intro]
   Guitar 1 & 2
   N.C.
C#|----------------------------------------------------|----------------------------------------------------|
G#|----------------------------------------------------|----------------------------------------------------|
E |----------------------------------------------------|----------------------------------------------------|
B |----------------------------------------------------|----------------------------------------------------|
F#|--5\----------------3-------1-------0---------------|--------------------0--------1----------------------|
B |-----------0--------------------------------5-------|--4--------5----------------------------------------|


C#|----------------------------------------------------|----------------------------------------------------|
G#|----------------------------------------------------|----------------------------------------------------|
E |----------------------------------------------------|----------------------------------------------------|
B |----------------------------------------------------|----------------------------------------------------|
F#|--5\----------------3-------1-------0---------------|----------------------------------------------------|
B |-----------0--------------------------------5-------|--4--------1--------------------------1--1-----1----|


C#|----------------------------------------------------|----------------------------------------------------|
G#|----------------------------------------------------|----------------------------------------------------|
E |----------------------------------------------------|----------------------------------------------------|
B |----------------------------------------------------|----------------------------------------------------|
F#|--5\----------------3-------1-------0---------------|--------------------0--------1----------------------|
B |-----------0--------------------------------5-------|--4--------5----------------------------------------|


C#|----------------------------------------------------|----------------------------------------------------|
G#|----------------------------------------------------|----------------------------------------------------|
E |----------------------------------------------------|----------------------------------------------------|
B |----------------------------------------------------|----------------------------------------------------|
F#|--5\----------------3-------1-------0---------------|----------------------------------------------------|
B |-----------0--------------------------------5-------|--4--------1--------------------------1--1-----1----|

  [Verse 1] 
   Guitar 1
   N.C.
C#|----------------------------------------------------|----------------------------------------------------|
G#|----------------------------------------------------|----------------------------------------------------|
E |----------------------------------------------------|----------------------------------------------------|
B |----------------------------------------------------|----------------------------------------------------|
F#|--5b----------------5b------------------------------|--5b----------------5b------------------------------|
B |-----------0-----------------0--------0M-0M---------|-----------0-----------------0--------0M-0M-0M-0M---|

                                                        Guitar 1 & 2
C#|----------------------------------------------------|----------------------------------------------------|
G#|----------------------------------------------------|----------------------------------------------------|
E |----------------------------------------------------|----------------------------------------------------|
B |----------------------------------------------------|----------------------------------------------------|
F#|--5b----------------5b------------------------------|--3--------1--------0-------------------------------|
B |-----------0-----------------0--------0M-0M---------|-----------------------------5--------4-----5-------|

   
C#|----------------------------------------------------|----------------------------------------------------|
G#|----------------------------------------------------|----------------------------------------------------|
E |----------------------------------------------------|----------------------------------------------------|
B |----------------------------------------------------|----------------------------------------------------|
F#|--5b----------------5b------------------------------|--5b----------------5b------------------------------|
B |-----------0-----------------0--------0M-0M---------|-----------0-----------------0--------0M-0M-0M-0M---|


C#|----------------------------------------------------|----------------------------------------------------|
G#|----------------------------------------------------|----------------------------------------------------|
E |----------------------------------------------------|----------------------------------------------------|
B |----------------------------------------------------|----------------------------------------------------|
F#|--5b----------------5b------------------------------|--3--------1--------0-------------------------------|
B |-----------0-----------------0--------0M-0M---------|-----------------------------5--------4-----5-------|

 [Pre-Chorus]
   Guitar 1
   N.C.
C#|----------------------------------------------------|----------------------------------------------------|
G#|----------------------------------------------------|----------------------------------------------------|
E |----------------------------------------------------|----------------------------------------------------|
B |----------------------------------------------------|----------------------------------------------------|
F#|--1b----------------1b----------------1b------------|--------1b----------------3b----------3b------------|
B |-----------0-----------------0-----------------0----|-----------------0----------------------------------|
 
   Guitar 2
C#|----------------------------------------------------|----------------------------------------------------|
G#|----------------------------------------------------|----------------------------------------------------|
E |----------------------------------------------------|----------------------------------------------------|
B |----------------------------------------------------|--------------------------2b----------2b------------|
F#|----------------------------------------------------|----------------------------------------------------|
B |----------------------------------------------------|----------------------------------------------------|

   Guitar 1
C#|----------------------------------------------------|----------------------------------------------------|
G#|----------------------------------------------------|----------------------------------------------------|
E |----------------------------------------------------|----------------------------------------------------|
B |----------------------------------------------------|----------------------------------------------------|
F#|--1b----------------1b----------------1b------------|--------1b----------------0-------------------------|
B |-----------0-----------------0-----------------0----|-----------------0--------------------3-------------|

   Guitar 2
C#|----------------------------------------------------|----------------------------------------------------|
G#|----------------------------------------------------|----------------------------------------------------|
E |----------------------------------------------------|----------------------------------------------------|
B |----------------------------------------------------|----------------------------------------------------|
F#|----------------------------------------------------|--------------------------3-----------0-------------|
B |----------------------------------------------------|----------------------------------------------------|

   Guitar 1
C#|----------------------------------------------------|----------------------------------------------------|
G#|----------------------------------------------------|----------------------------------------------------|
E |----------------------------------------------------|----------------------------------------------------|
B |----------------------------------------------------|----------------------------------------------------|
F#|--1b----------------1b----------------1b------------|--------1b----------------3b----------3b------------|
B |-----------0-----------------0-----------------0----|-----------------0----------------------------------|

   Guitar 2
C#|----------------------------------------------------|----------------------------------------------------|
G#|----------------------------------------------------|----------------------------------------------------|
E |----------------------------------------------------|----------------------------------------------------|
B |----------------------------------------------------|----------------------------------------------------|
F#|--5b----------------5b----------------5b------------|--------5b----------------2b----------2b------------|
B |-----------0-----------------0-----------------0----|-----------------0----------------------------------|

   Guitar 1    
                                                                                  G        E        F#
C#|----------------------------------------------------|----------------------------------------------------|
G#|----------------------------------------------------|----------------------------------------------------|
E |----------------------------------------------------|----------------------------------------------------|
B |----------------------------------------------------|--------------------------8--------5--------7-------|
F#|--1b----------------1b----------------1b------------|--------1b----------------8--------5--------7-------|
B |-----------0-----------------0-----------------0----|-----------------0--------8--------5--------7-------|
  
   Guitar 2
                                                                                  G        E        F#
C#|----------------------------------------------------|----------------------------------------------------|
G#|----------------------------------------------------|----------------------------------------------------|
E |----------------------------------------------------|----------------------------------------------------|
B |----------------------------------------------------|--------------------------8--------5--------7-------|
F#|--5b----------------5b----------------5b------------|--------5b----------------8--------5--------7-------|
B |-----------0-----------------0-----------------0----|-----------------0--------8--------5--------7-------|

  [Chorus]
   Guitar 1 & 2
   N.C.
C#|----------------------------------------------------|----------------------------------------------------|
G#|----------------------------------------------------|----------------------------------------------------|
E |----------------------------------------------------|----------------------------------------------------|
B |----------------------------------------------------|----------------------------------------------------|
F#|--5\----------------3-------1-------0---------------|--------------------0--------1----------------------|
B |-----------0--------------------------------5-------|--4--------5----------------------------------------|


C#|----------------------------------------------------|----------------------------------------------------|
G#|----------------------------------------------------|----------------------------------------------------|
E |----------------------------------------------------|----------------------------------------------------|
B |----------------------------------------------------|----------------------------------------------------|
F#|--5\----------------3-------1-------0---------------|----------------------------------------------------|
B |-----------0--------------------------------5-------|--4--------1--------------------------1--1-----1----|


C#|----------------------------------------------------|----------------------------------------------------|
G#|----------------------------------------------------|----------------------------------------------------|
E |----------------------------------------------------|----------------------------------------------------|
B |----------------------------------------------------|----------------------------------------------------|
F#|--5\----------------3-------1-------0---------------|--------------------0--------1----------------------|
B |-----------0--------------------------------5-------|--4--------5----------------------------------------|


C#|----------------------------------------------------|----------------------------------------------------|
G#|----------------------------------------------------|----------------------------------------------------|
E |----------------------------------------------------|----------------------------------------------------|
B |----------------------------------------------------|----------------------------------------------------|
F#|--5\----------------3-------1-------0---------------|----------------------------------------------------|
B |-----------0--------------------------------5-------|--4--------1--------------------------1--1-----1----|

  [Verse 2]
   Guitar 1
   N.C.
C#|----------------------------------------------------|----------------------------------------------------|
G#|----------------------------------------------------|----------------------------------------------------|
E |----------------------------------------------------|----------------------------------------------------|
B |----------------------------------------------------|----------------------------------------------------|
F#|----------------------------------------------------|----------------------------------------------------|
B |--0--------0--------0--------0--------0M-0M---------|--0--------0--------0--------0--------0M------------|

                                                        Guitar 1 & 2
C#|----------------------------------------------------|----------------------------------------------------|
G#|----------------------------------------------------|----------------------------------------------------|
E |----------------------------------------------------|----------------------------------------------------|
B |----------------------------------------------------|----------------------------------------------------|
F#|----------------------------------------------------|--3--------1--------0-------------------------------|
B |--0--------0--------0--------0--------0M------------|-----------------------------5--------4-----5-------|

   
C#|----------------------------------------------------|----------------------------------------------------|
G#|----------------------------------------------------|----------------------------------------------------|
E |----------------------------------------------------|----------------------------------------------------|
B |----------------------------------------------------|----------------------------------------------------|
F#|----------------------------------------------------|----------------------------------------------------|
B |--0--------0--------0--------0--------0M-0M---------|--0--------0--------0--------0--------0M------------|


C#|----------------------------------------------------|----------------------------------------------------|
G#|----------------------------------------------------|----------------------------------------------------|
E |----------------------------------------------------|----------------------------------------------------|
B |----------------------------------------------------|----------------------------------------------------|
F#|--5b----------------5b------------------------------|--3--------1--------0-------------------------------|
B |-----------0-----------------0--------0M-0M---------|-----------------------------5--------4b*-----------|
                                                                                              
  [Pre-Chorus 2]
   Guitar 1
   N.C.
C#|----------------------------------------------------|----------------------------------------------------|
G#|----------------------------------------------------|----------------------------------------------------|
E |----------------------------------------------------|----------------------------------------------------|
B |----------------------------------------------------|----------------------------------------------------|
F#|--1b----------------1b----------------1b------------|--------1b----------------3b----------3b------------|
B |-----------0-----------------0-----------------0----|-----------------0----------------------------------|
   Guitar 2
C#|----------------------------------------------------|----------------------------------------------------|
G#|----------------------------------------------------|----------------------------------------------------|
E |----------------------------------------------------|----------------------------------------------------|
B |----------------------------------------------------|----------------------------------------------------|
F#|--5b----------------5b----------------5b------------|--------5b----------------2b----------2b------------|
B |-----------0-----------------0-----------------0----|-----------------0----------------------------------|

   Guitar 1
C#|----------------------------------------------------|----------------------------------------------------|
G#|----------------------------------------------------|----------------------------------------------------|
E |----------------------------------------------------|----------------------------------------------------|
B |----------------------------------------------------|----------------------------------------------------|
F#|--1b----------------1b----------------1b------------|--------1b----------------0-------------------------|
B |-----------0-----------------0-----------------0----|-----------------0--------------------3-------------|
   Guitar 2
C#|----------------------------------------------------|----------------------------------------------------|
G#|----------------------------------------------------|----------------------------------------------------|
E |----------------------------------------------------|----------------------------------------------------|
B |----------------------------------------------------|----------------------------------------------------|
F#|--5b----------------5b----------------5b------------|--------5b------------------------------------------|
B |-----------0-----------------0-----------------0----|-----------------0----------------------------------|

   Guitar 1
C#|----------------------------------------------------|----------------------------------------------------|
G#|----------------------------------------------------|----------------------------------------------------|
E |----------------------------------------------------|----------------------------------------------------|
B |----------------------------------------------------|----------------------------------------------------|
F#|--1b----------------1b----------------1b------------|--------1b----------------3b----------3b------------|
B |-----------0-----------------0-----------------0----|-----------------0----------------------------------|
   Guitar 2
C#|----------------------------------------------------|----------------------------------------------------|
G#|----------------------------------------------------|----------------------------------------------------|
E |----------------------------------------------------|----------------------------------------------------|
B |----------------------------------------------------|----------------------------------------------------|
F#|--5b----------------5b----------------5b------------|--------5b----------------2b----------2b------------|
B |-----------0-----------------0-----------------0----|-----------------0----------------------------------|

   Guitar 1
                                                                                  G        E        F#
C#|----------------------------------------------------|----------------------------------------------------|
G#|----------------------------------------------------|----------------------------------------------------|
E |----------------------------------------------------|----------------------------------------------------|
B |----------------------------------------------------|--------------------------8--------5--------7-------|
F#|--1b----------------1b----------------1b------------|--------1b----------------8--------5--------7-------|
B |-----------0-----------------0-----------------0----|-----------------0--------8--------5--------7-------|
   Guitar 2
                                                                                  G        E        F#
C#|----------------------------------------------------|----------------------------------------------------|
G#|----------------------------------------------------|----------------------------------------------------|
E |----------------------------------------------------|----------------------------------------------------|
B |----------------------------------------------------|--------------------------8--------5--------7-------|
F#|--5b----------------5b----------------5b------------|--------5b----------------8--------5--------7-------|
B |-----------0-----------------0-----------------0----|-----------------0--------8--------5--------7-------|

  [Chorus 2]
   Guitar 1 & 2
   N.C.
C#|----------------------------------------------------|----------------------------------------------------|
G#|----------------------------------------------------|----------------------------------------------------|
E |----------------------------------------------------|----------------------------------------------------|
B |----------------------------------------------------|----------------------------------------------------|
F#|--5\----------------3-------1-------0---------------|--------------------0--------1----------------------|
B |-----------0--------------------------------5-------|--4--------5----------------------------------------|


C#|----------------------------------------------------|----------------------------------------------------|
G#|----------------------------------------------------|----------------------------------------------------|
E |----------------------------------------------------|----------------------------------------------------|
B |----------------------------------------------------|----------------------------------------------------|
F#|--5\----------------3-------1-------0---------------|----------------------------------------------------|
B |-----------0--------------------------------5-------|--4--------1--------------------------1--1-----1----|


C#|----------------------------------------------------|----------------------------------------------------|
G#|----------------------------------------------------|----------------------------------------------------|
E |----------------------------------------------------|----------------------------------------------------|
B |----------------------------------------------------|----------------------------------------------------|
F#|--5\----------------3-------1-------0---------------|--------------------0--------1----------------------|
B |-----------0--------------------------------5-------|--4--------5----------------------------------------|


C#|----------------------------------------------------|----------------------------------------------------|
G#|----------------------------------------------------|----------------------------------------------------|
E |----------------------------------------------------|----------------------------------------------------|
B |----------------------------------------------------|----------------------------------------------------|
F#|--5\----------------3-------1-------0---------------|----------------------------------------------------|
B |-----------0--------------------------------5-------|--4--------1--------------------------1--1-----1----|


C#|----------------------------------------------------|----------------------------------------------------|
G#|----------------------------------------------------|----------------------------------------------------|
E |----------------------------------------------------|----------------------------------------------------|
B |----------------------------------------------------|----------------------------------------------------|
F#|--5\----------------3-------1-------0---------------|--------------------0--------1----------------------|
B |-----------0--------------------------------5-------|--4--------5----------------------------------------|


C#|----------------------------------------------------|----------------------------------------------------|
G#|----------------------------------------------------|----------------------------------------------------|
E |----------------------------------------------------|----------------------------------------------------|
B |----------------------------------------------------|----------------------------------------------------|
F#|--5\----------------3-------1-------0---------------|----------------------------------------------------|
B |-----------0--------------------------------5-------|--4--------1--------------------------1--1-----1----|


C#|----------------------------------------------------|----------------------------------------------------|
G#|----------------------------------------------------|----------------------------------------------------|
E |----------------------------------------------------|----------------------------------------------------|
B |----------------------------------------------------|----------------------------------------------------|
F#|--5\----------------3-------1-------0---------------|--------------------0--------1----------------------|
B |-----------0--------------------------------5-------|--4--------5----------------------------------------|


C#|----------------------------------------------------|----------------------------------------------------|
G#|----------------------------------------------------|----------------------------------------------------|
E |----------------------------------------------------|----------------------------------------------------|
B |----------------------------------------------------|----------------------------------------------------|
F#|--5\----------------3-------1-------0---------------|----------------------------------------------------|
B |-----------0--------------------------------5-------|--4--------1--------------------------1--1-----1----|

  [Bridge]
   Guitar 1 & 2
     D#       E        F#       G
C#|----------------------------------------------------|-------|
G#|----------------------------------------------------|-------|
E |----------------------------------------------------|-------|
B |--4--------5--------7--------8----------------------|-------|
F#|--4--------5--------7--------8----------------------|-------|
B |--4--------5--------7--------8----------------------|-------|

     D#       E        F#       G       D#
C#|----------------------------------------------------|-------|
G#|----------------------------------------------------|-------|
E |----------------------------------------------------|-------|
B |--4--------5--------7--------8-------4--------------|-------|
F#|--4--------5--------7--------8-------4--------------|-------|
B |--4--------5--------7--------8-------4--------------|-------|
  
     D#       E        F#       G
C#|----------------------------------------------------|-------|
G#|----------------------------------------------------|-------|
E |----------------------------------------------------|-------|
B |--4--------5--------7--------8----------------------|-------|
F#|--4--------5--------7--------8----------------------|-------|
B |--4--------5--------7--------8----------------------|-------|

     D#       E        F#       G       D#
C#|----------------------------------------------------|-------|
G#|----------------------------------------------------|-------|
E |----------------------------------------------------|-------|
B |--4--------5--------7--------8-------4--------------|-------|
F#|--4--------5--------7--------8-------4--------------|-------|
B |--4--------5--------7--------8-------4--------------|-------|

   [Solopart]
   Guitar 1 $ 2
     D#       E        F#       G
C#|----------------------------------------------------|-------|
G#|----------------------------------------------------|-------|
E |----------------------------------------------------|-------|
B |--4--------5--------7--------8----------------------|-------|
F#|--4--------5--------7--------8----------------------|-------|
B |--4--------5--------7--------8----------------------|-------|

     D#       E        F#       G       D#
C#|----------------------------------------------------|-------|
G#|----------------------------------------------------|-------|
E |----------------------------------------------------|-------|
B |--4--------5--------7--------8-------4--------------|-------|
F#|--4--------5--------7--------8-------4--------------|-------|
B |--4--------5--------7--------8-------4--------------|-------|

     D#       E        F#       G
C#|----------------------------------------------------|-------|
G#|----------------------------------------------------|-------|
E |----------------------------------------------------|-------|
B |--4--------5--------7--------8----------------------|-------|
F#|--4--------5--------7--------8----------------------|-------|
B |--4--------5--------7--------8----------------------|-------|

     D#       E        F#       G        D#                                       G           G  G  G  G
C#|----------------------------------------------------|----------------------------------------------------|
G#|----------------------------------------------------|----------------------------------------------------|
E |----------------------------------------------------|----------------------------------------------------|
B |--4--------5--------7--------8--------4-------------|--------------------------8-----------8--8--8--8----|
F#|--4--------5--------7--------8--------4-------------|--------------------------8-----------8--8--8--8----|
B |--4--------5--------7--------8--------4-------------|--------------------------8-----------8--8--8--8----|

     D#       E        F#       G
C#|----------------------------------------------------|-------|
G#|----------------------------------------------------|-------|
E |----------------------------------------------------|-------|
B |--4--------5--------7--------8----------------------|-------|
F#|--4--------5--------7--------8----------------------|-------|
B |--4--------5--------7--------8----------------------|-------|

     D#       E        F#       G        D#                                       G           G  G  G  G
C#|----------------------------------------------------|----------------------------------------------------|
G#|----------------------------------------------------|----------------------------------------------------|
E |----------------------------------------------------|----------------------------------------------------|
B |--4--------5--------7--------8--------4-------------|--------------------------8-----------8--8--8--8----|
F#|--4--------5--------7--------8--------4-------------|--------------------------8-----------8--8--8--8----|
B |--4--------5--------7--------8--------4-------------|--------------------------8-----------8--8--8--8----|

  [Chorus 3]
   Guitar 1 & 2
   N.C.
C#|----------------------------------------------------|----------------------------------------------------|
G#|----------------------------------------------------|----------------------------------------------------|
E |----------------------------------------------------|----------------------------------------------------|
B |----------------------------------------------------|----------------------------------------------------|
F#|--5\----------------3-------1-------0---------------|--------------------0--------1----------------------|
B |-----------0--------------------------------5-------|--4--------5----------------------------------------|


C#|----------------------------------------------------|----------------------------------------------------|
G#|----------------------------------------------------|----------------------------------------------------|
E |----------------------------------------------------|----------------------------------------------------|
B |----------------------------------------------------|----------------------------------------------------|
F#|--5\----------------3-------1-------0---------------|----------------------------------------------------|
B |-----------0--------------------------------5-------|--4--------1--------------------------1--1-----1----|


C#|----------------------------------------------------|----------------------------------------------------|
G#|----------------------------------------------------|----------------------------------------------------|
E |----------------------------------------------------|----------------------------------------------------|
B |----------------------------------------------------|----------------------------------------------------|
F#|--5\----------------3-------1-------0---------------|--------------------0--------1----------------------|
B |-----------0--------------------------------5-------|--4--------5----------------------------------------|


C#|----------------------------------------------------|----------------------------------------------------|
G#|----------------------------------------------------|----------------------------------------------------|
E |----------------------------------------------------|----------------------------------------------------|
B |----------------------------------------------------|----------------------------------------------------|
F#|--5\----------------3-------1-------0---------------|----------------------------------------------------|
B |-----------0--------------------------------5-------|--4--------1--------------------------1--1-----1----|


C#|----------------------------------------------------|----------------------------------------------------|
G#|----------------------------------------------------|----------------------------------------------------|
E |----------------------------------------------------|----------------------------------------------------|
B |----------------------------------------------------|----------------------------------------------------|
F#|--5\----------------3-------1-------0---------------|--------------------0--------1----------------------|
B |-----------0--------------------------------5-------|--4--------5----------------------------------------|


C#|----------------------------------------------------|----------------------------------------------------|
G#|----------------------------------------------------|----------------------------------------------------|
E |----------------------------------------------------|----------------------------------------------------|
B |----------------------------------------------------|----------------------------------------------------|
F#|--5\----------------3-------1-------0---------------|----------------------------------------------------|
B |-----------0--------------------------------5-------|--4--------1--------------------------1--1-----1----|


C#|----------------------------------------------------|----------------------------------------------------|
G#|----------------------------------------------------|----------------------------------------------------|
E |----------------------------------------------------|----------------------------------------------------|
B |----------------------------------------------------|----------------------------------------------------|
F#|--5\----------------3-------1-------0---------------|--------------------0--------1----------------------|
B |-----------0--------------------------------5-------|--4--------5----------------------------------------|


C#|----------------------------------------------------|----------------------------------------------------||
G#|----------------------------------------------------|----------------------------------------------------||
E |----------------------------------------------------|----------------------------------------------------||
B |----------------------------------------------------|----------------------------------------------------||
F#|--5\----------------3-------1-------0---------------|----------------------------------------------------||
B |-----------0--------------------------------5-------|--4--------1--------------------------1--1-----1----||

************************************

| b - bend (in these cases just a 1/4 note) 
| \ - slide from note down
| M - palm mute
| * - Pinch harmonic

************************************

            
            
Suggest correction
Creating personal tab
Creating personal tab
You can edit any tab online and save it as your Personal.

You can edit, replace or remove any tab part or add personal notes – all changes will be seen only by you.

Personal tabs can be accessed anytime from any device, even offline.
Learn more »
Give kudos to tab author, rate the tab!
1 2 3 4 5
comments
print report bad tab
guest
You may want to rate the tab now too:
select rating
Wanna post a correction for this tab? Suggest correction