Oops, an error
Loading. Please wait.

Heartstrings Come Undone Bass Tab

version 2
version 2

Whole song

597 views 6 this week
no commentswrite comment
1 2 3 4 5
3 more votes to show rating
add to favorites
launch autoscroll
font size
0
reset
guitar tuner
Autoscroll
slow
fast
+/-
esc
set tempo
stop
Help us to improve Ultimate-Guitar.com Take our survey!
×
Heartstrings come undone

Guitar Intro...

When the second guitar comes in, than the bass starts
G----------------------------------------------------|
D----------------------------------------------------|
A----------------------------------------------------|
E-2-2--5-5--0-0--7-7---------------------------------|
(These are played in whole notes until Don starts singing)

Verse
G----------------------------------------------------|
D----------------------------------------------------|
A-7-7--5-5-5-5--0-0--7-7--5-5-5-5--0-0---------------|
E----------------------------------------------------|
(Also played in whole notes)

Bridge
G----------------------------------------------------|
D----------------------------------------------------|
A----------------------------------------------------|
E-2222-333-0-555-0-2222-333-555-0--------------------|

Chorus
G----------------------------------------------------|
D----------------------------------------------------|
A----------------------------------------------------|
E-10-10--0-0--2-2--5-5-------------------------------|

(If you fade out...) Bridge
G----------------------------------------------------|
D----------------------------------------------------|
A----------------------------------------------------|
E-2-22-0-00-1-11-3-33--------------------------------|x2

Ending Chorus is the exact same as the chorus
Suggest correction
Give kudos to tab author, rate the tab!
1 2 3 4 5
comments
print report bad tab
guest
You may want to rate the tab now too:
select rating
Wanna post a correction for this tab? Suggest correction