Oops, an error
Loading. Please wait.

Hell Dont Need Me tab

version 1
version 1

Whole song

  • Rhythm guitar part of the whole song. Lead parts will follow.

Interactive

103 views 3 this week
no commentswrite comment
1 2 3 4 5
3 more votes to show rating
add to favorites
×
Save as Personal and add changes to this tab that will be seen only by you. Learn more ›
×
You can save this tab as Personal to edit and correct it or add notes. All changes will be seen only by you. Learn more »
launch autoscroll
font size
0
reset
how to read this tab
guitar tuner
edit
Autoscroll
slow
fast
+/-
esc
set tempo
stop
About this tab version
Rhythm guitar part of the whole song. Lead parts will follow. Was this info helpful? Yes No
Title: Hell don't need me
Artist: Demon Hunter
Album: Extremist
Words: Ryan Clark
Music: Demon Hunter
Copyright: Demon Hunter
Solid State Records
Year 2014
Tabber: metald74
Tempo = 98
Rhythm

[Intro]                                                     
C#|----------------------------------------------------|
G#|----------------------------------------------------|
E |----------------------------------------------------|
B |--2--2--------2--2--------2--2--------2--2--2--2L---|
F#|--2--2--------2--2--------2--2--------2--2--2--2L---|
B |--2--2--------2--2--------2--2--------2--2--2--2L---|
                                                     
C#|----------------------------------------------------|
G#|----------------------------------------------------|
E |----------------------------------------------------|
B |--2-----2--2--2--2--------2s-3--3--3--3s-5--5--5----|
F#|--2-----2--2--2--2--------2s-3--3--3--3s-5--5--5----|
B |--2-----2--2--2--2--------2s-3--3--3--3s-5--5--5----|
                                                     
C#|----------------------------------------------------|
G#|----------------------------------------------------|
E |----------------------------------------------------|
B |--2--2--------2--2--------2--2--------2--2--2--2L---|
F#|--2--2--------2--2--------2--2--------2--2--2--2L---|
B |--2--2--------2--2--------2--2--------2--2--2--2L---|
                                                     
C#|----------------------------------------------------|
G#|----------------------------------------------------|
E |----------------------------------------------------|
B |--2-----2--2--2--2--------2s-3--------3s-5----------|
F#|--2-----2--2--2--2--------2s-3--------3s-5----------|
B |--2-----2--2--2--2--------2s-3--------3s-5----------|

[Verse 1]                                                     
C#|----------------------------------------------------|
G#|----------------------------------------------------|
E |----------------------------------------------------|
B |--2M-2M-------2M-2M-------2M-2M-------2M-2M-2M-2L---|
F#|--2M-2M-------2M-2M-------2M-2M-------2M-2M-2M-2L---|
B |--2M-2M-------2M-2M-------2M-2M-------2M-2M-2M-2L---|
                                                     
C#|----------------------------------------------------|
G#|----------------------------------------------------|
E |----------------------------------------------------|
B |--2M----2M-2M-2M-2M-------2s-3--3--3--3s-5--5--5----|
F#|--2M----2M-2M-2M-2M-------2s-3--3--3--3s-5--5--5----|
B |--2M----2M-2M-2M-2M-------2s-3--3--3--3s-5--5--5----|
                                                     
C#|----------------------------------------------------|
G#|----------------------------------------------------|
E |----------------------------------------------------|
B |--2M-2M-------2M-2M-------2M-2M-------2M-2M-2M-2L---|
F#|--2M-2M-------2M-2M-------2M-2M-------2M-2M-2M-2L---|
B |--2M-2M-------2M-2M-------2M-2M-------2M-2M-2M-2L---|
                                                     
C#|----------------------------------------------------|
G#|----------------------------------------------------|
E |----------------------------------------------------|
B |--2M----2M-2M-2M-2M-------2s-3--3--3--3s-5--5--5----|
F#|--2M----2M-2M-2M-2M-------2s-3--3--3--3s-5--5--5----|
B |--2M----2M-2M-2M-2M-------2s-3--3--3--3s-5--5--5----|
                                                     
C#|----------------------------------------------------|
G#|----------------------------------------------------|
E |----------------------------------------------------|
B |--2M-2M-------2M-2M-------2M-2M-------2M-2M-2M-2L---|
F#|--2M-2M-------2M-2M-------2M-2M-------2M-2M-2M-2L---|
B |--2M-2M-------2M-2M-------2M-2M-------2M-2M-2M-2L---|
                                                     
C#|----------------------------------------------------|
G#|----------------------------------------------------|
E |----------------------------------------------------|
B |--2M----2M-2M-2M-2M-------2s-3--3--3--3s-5--5--5----|
F#|--2M----2M-2M-2M-2M-------2s-3--3--3--3s-5--5--5----|
B |--2M----2M-2M-2M-2M-------2s-3--3--3--3s-5--5--5----|
                                                     
C#|----------------------------------------------------|
G#|----------------------------------------------------|
E |----------------------------------------------------|
B |--2M-2M-------2M-2M-------2M-2M-------2M-2M-2M-2L---|
F#|--2M-2M-------2M-2M-------2M-2M-------2M-2M-2M-2L---|
B |--2M-2M-------2M-2M-------2M-2M-------2M-2M-2M-2L---|
                                                     
C#|----------------------------------------------------|
G#|----------------------------------------------------|
E |----------------------------------------------------|
B |--2M----2M-2M-2M-2M-------2s-3--3--3--3s-5--5--5----|
F#|--2M----2M-2M-2M-2M-------2s-3--3--3--3s-5--5--5----|
B |--2M----2M-2M-2M-2M-------2s-3--3--3--3s-5--5--5----|

[Interlude]                                                         
C#|----------------------------|----------------------------|
G#|----------------------------|----------------------------|
E |----------------------------|----------------------------|
B |--5--5--5--5--7--------5----|--5--5--5--7-----5-----5----|
F#|--5--5--5--5--5--------5----|--5--5--5--5-----5-----5----|
B |--5--5--5--5--5--------5----|--5--5--5--5-----5-----5----|
                                                          
C#|----------------------------|----------------------------|
G#|----------------------------|----------------------------|
E |----------------------------|----------------------------|
B |--5--5--5--5--7--------5----|--5--5--5--7-----5-----5----|
F#|--5--5--5--5--5--------5----|--5--5--5--5-----5-----5----|
B |--5--5--5--5--5--------5----|--5--5--5--5-----5-----5----|

[Verse 2]                                                    
C#|----------------------------------------------------|
G#|----------------------------------------------------|
E |----------------------------------------------------|
B |--2M-2M-------2M-2M-------2M-2M-------2M-2M-2M-2L---|
F#|--2M-2M-------2M-2M-------2M-2M-------2M-2M-2M-2L---|
B |--2M-2M-------2M-2M-------2M-2M-------2M-2M-2M-2L---|
                                                     
C#|----------------------------------------------------|
G#|----------------------------------------------------|
E |----------------------------------------------------|
B |--2M----2M-2M-2M-2M-------2s-3--3--3--3s-5--5--5----|
F#|--2M----2M-2M-2M-2M-------2s-3--3--3--3s-5--5--5----|
B |--2M----2M-2M-2M-2M-------2s-3--3--3--3s-5--5--5----|
                                                     
C#|----------------------------------------------------|
G#|----------------------------------------------------|
E |----------------------------------------------------|
B |--2M-2M-------2M-2M-------2M-2M-------2M-2M-2M-2L---|
F#|--2M-2M-------2M-2M-------2M-2M-------2M-2M-2M-2L---|
B |--2M-2M-------2M-2M-------2M-2M-------2M-2M-2M-2L---|
                                                     
C#|----------------------------------------------------|
G#|----------------------------------------------------|
E |----------------------------------------------------|
B |--2M----2M-2M-2M-2M-------2s-3--3--3--3s-5--5--5----|
F#|--2M----2M-2M-2M-2M-------2s-3--3--3--3s-5--5--5----|
B |--2M----2M-2M-2M-2M-------2s-3--3--3--3s-5--5--5----|
                                                     
C#|----------------------------------------------------|
G#|----------------------------------------------------|
E |----------------------------------------------------|
B |--2M-2M-------2M-2M-------2M-2M-------2M-2M-2M-2L---|
F#|--2M-2M-------2M-2M-------2M-2M-------2M-2M-2M-2L---|
B |--2M-2M-------2M-2M-------2M-2M-------2M-2M-2M-2L---|
                                                     
C#|----------------------------------------------------|
G#|----------------------------------------------------|
E |----------------------------------------------------|
B |--2M----2M-2M-2M-2M-------2s-3--3--3--3s-5--5--5----|
F#|--2M----2M-2M-2M-2M-------2s-3--3--3--3s-5--5--5----|
B |--2M----2M-2M-2M-2M-------2s-3--3--3--3s-5--5--5----|
                                                     
C#|----------------------------------------------------|
G#|----------------------------------------------------|
E |----------------------------------------------------|
B |--2M-2M-------2M-2M-------2M-2M-------2M-2M-2M-2L---|
F#|--2M-2M-------2M-2M-------2M-2M-------2M-2M-2M-2L---|
B |--2M-2M-------2M-2M-------2M-2M-------2M-2M-2M-2L---|
                                                     
C#|----------------------------------------------------|
G#|----------------------------------------------------|
E |----------------------------------------------------|
B |--2M----2M-2M-2M-2M-------2s-3--3--3--3s-5--5--5----|
F#|--2M----2M-2M-2M-2M-------2s-3--3--3--3s-5--5--5----|
B |--2M----2M-2M-2M-2M-------2s-3--3--3--3s-5--5--5----|

[Chorus]                                                         
C#|----------------------------|----------------------------|
G#|----------------------------|----------------------------|
E |----------------------------|----------------------------|
B |--10-10-10-10-10-10-10-10---|--10-10-10-10-10-10-10-10---|
F#|--10-10-10-10-10-10-10-10---|--10-10-10-10-10-10-10-10---|
B |--10-10-10-10-10-10-10-10---|--10-10-10-10-10-10-10-10---|
                                                          
C#|----------------------------|----------------------------|
G#|----------------------------|----------------------------|
E |----------------------------|----------------------------|
B |--5--5--5--5--5--5--5--3----|--3--3--3--3--3--3--3--3----|
F#|--5--5--5--5--5--5--5--3----|--3--3--3--3--3--3--3--3----|
B |--5--5--5--5--5--5--5--3----|--3--3--3--3--3--3--3--3----|
                                                          
C#|----------------------------|----------------------------|
G#|----------------------------|----------------------------|
E |----------------------------|----------------------------|
B |--7--7--7--7--7--7--7--7----|--7--7--7--7--7--7--7--7----|
F#|--7--7--7--7--7--7--7--7----|--7--7--7--7--7--7--7--7----|
B |--7--7--7--7--7--7--7--7----|--7--7--7--7--7--7--7--7----|
                                                          
C#|----------------------------|----------------------------|
G#|----------------------------|----------------------------|
E |----------------------------|----------------------------|
B |--3--3--3--3--3--3--3--3----|--3--3--3--3--3--3--3--3----|
F#|--3--3--3--3--3--3--3--3----|--3--3--3--3--3--3--3--3----|
B |--3--3--3--3--3--3--3--3----|--3--3--3--3--3--3--3--3----|

[Intro]                                                     
C#|----------------------------------------------------|
G#|----------------------------------------------------|
E |----------------------------------------------------|
B |--2--2--------2--2--------2--2--------2--2--2--2L---|
F#|--2--2--------2--2--------2--2--------2--2--2--2L---|
B |--2--2--------2--2--------2--2--------2--2--2--2L---|
                                                     
C#|----------------------------------------------------|
G#|----------------------------------------------------|
E |----------------------------------------------------|
B |--2-----2--2--2--2--------2s-3--3--3--3s-5--5--5----|
F#|--2-----2--2--2--2--------2s-3--3--3--3s-5--5--5----|
B |--2-----2--2--2--2--------2s-3--3--3--3s-5--5--5----|
                                                     
C#|----------------------------------------------------|
G#|----------------------------------------------------|
E |----------------------------------------------------|
B |--2--2--------2--2--------2--2--------2--2--2--2L---|
F#|--2--2--------2--2--------2--2--------2--2--2--2L---|
B |--2--2--------2--2--------2--2--------2--2--2--2L---|
                                                     
C#|----------------------------------------------------|
G#|----------------------------------------------------|
E |----------------------------------------------------|
B |--2-----2--2--2--2--------2s-3--------3s-5----------|
F#|--2-----2--2--2--2--------2s-3--------3s-5----------|
B |--2-----2--2--2--2--------2s-3--------3s-5----------|

[Verse 3]                                                     
C#|----------------------------------------------------|
G#|----------------------------------------------------|
E |----------------------------------------------------|
B |--2M-2M-------2M-2M-------2M-2M-------2M-2M-2M-2L---|
F#|--2M-2M-------2M-2M-------2M-2M-------2M-2M-2M-2L---|
B |--2M-2M-------2M-2M-------2M-2M-------2M-2M-2M-2L---|
                                                     
C#|----------------------------------------------------|
G#|----------------------------------------------------|
E |----------------------------------------------------|
B |--2M----2M-2M-2M-2M-------2s-3--3--3--3s-5--5--5----|
F#|--2M----2M-2M-2M-2M-------2s-3--3--3--3s-5--5--5----|
B |--2M----2M-2M-2M-2M-------2s-3--3--3--3s-5--5--5----|
                                                     
C#|----------------------------------------------------|
G#|----------------------------------------------------|
E |----------------------------------------------------|
B |--2M-2M-------2M-2M-------2M-2M-------2M-2M-2M-2L---|
F#|--2M-2M-------2M-2M-------2M-2M-------2M-2M-2M-2L---|
B |--2M-2M-------2M-2M-------2M-2M-------2M-2M-2M-2L---|
                                                     
C#|----------------------------------------------------|
G#|----------------------------------------------------|
E |----------------------------------------------------|
B |--2M----2M-2M-2M-2M-------2s-3--3--3--3s-5--5--5----|
F#|--2M----2M-2M-2M-2M-------2s-3--3--3--3s-5--5--5----|
B |--2M----2M-2M-2M-2M-------2s-3--3--3--3s-5--5--5----|
                                                     
C#|----------------------------------------------------|
G#|----------------------------------------------------|
E |----------------------------------------------------|
B |--2M-2M-------2M-2M-------2M-2M-------2M-2M-2M-2L---|
F#|--2M-2M-------2M-2M-------2M-2M-------2M-2M-2M-2L---|
B |--2M-2M-------2M-2M-------2M-2M-------2M-2M-2M-2L---|
                                                     
C#|----------------------------------------------------|
G#|----------------------------------------------------|
E |----------------------------------------------------|
B |--2M----2M-2M-2M-2M-------2s-3--3--3--3s-5--5--5----|
F#|--2M----2M-2M-2M-2M-------2s-3--3--3--3s-5--5--5----|
B |--2M----2M-2M-2M-2M-------2s-3--3--3--3s-5--5--5----|
                                                     
C#|----------------------------------------------------|
G#|----------------------------------------------------|
E |----------------------------------------------------|
B |--2M-2M-------2M-2M-------2M-2M-------2M-2M-2M-2L---|
F#|--2M-2M-------2M-2M-------2M-2M-------2M-2M-2M-2L---|
B |--2M-2M-------2M-2M-------2M-2M-------2M-2M-2M-2L---|
                                                     
C#|----------------------------------------------------|
G#|----------------------------------------------------|
E |----------------------------------------------------|
B |--2M----2M-2M-2M-2M-------2s-3--3--3--3s-5--5--5----|
F#|--2M----2M-2M-2M-2M-------2s-3--3--3--3s-5--5--5----|
B |--2M----2M-2M-2M-2M-------2s-3--3--3--3s-5--5--5----|

[Interlude]                                                         
C#|----------------------------|----------------------------|
G#|----------------------------|----------------------------|
E |----------------------------|----------------------------|
B |--5--5--5--5--7--------5----|--5--5--5--7-----5-----5----|
F#|--5--5--5--5--5--------5----|--5--5--5--5-----5-----5----|
B |--5--5--5--5--5--------5----|--5--5--5--5-----5-----5----|
                                                          
C#|----------------------------|----------------------------|
G#|----------------------------|----------------------------|
E |----------------------------|----------------------------|
B |--5--5--5--5--7--------5----|--5--5--5--7-----5-----5----|
F#|--5--5--5--5--5--------5----|--5--5--5--5-----5-----5----|
B |--5--5--5--5--5--------5----|--5--5--5--5-----5-----5----|

[Chorus]                                                         
C#|----------------------------|----------------------------|
G#|----------------------------|----------------------------|
E |----------------------------|----------------------------|
B |--10-10-10-10-10-10-10-10---|--10-10-10-10-10-10-10-10---|
F#|--10-10-10-10-10-10-10-10---|--10-10-10-10-10-10-10-10---|
B |--10-10-10-10-10-10-10-10---|--10-10-10-10-10-10-10-10---|
                                                          
C#|----------------------------|----------------------------|
G#|----------------------------|----------------------------|
E |----------------------------|----------------------------|
B |--5--5--5--5--5--5--5--3----|--3--3--3--3--3--3--3--3----|
F#|--5--5--5--5--5--5--5--3----|--3--3--3--3--3--3--3--3----|
B |--5--5--5--5--5--5--5--3----|--3--3--3--3--3--3--3--3----|
                                                          
C#|----------------------------|----------------------------|
G#|----------------------------|----------------------------|
E |----------------------------|----------------------------|
B |--7--7--7--7--7--7--7--7----|--7--7--7--7--7--7--7--7----|
F#|--7--7--7--7--7--7--7--7----|--7--7--7--7--7--7--7--7----|
B |--7--7--7--7--7--7--7--7----|--7--7--7--7--7--7--7--7----|
                                                          
C#|----------------------------|----------------------------|
G#|----------------------------|----------------------------|
E |----------------------------|----------------------------|
B |--3--3--3--3--3--3--3--3----|--3--3--3--3--3--3--3--3----|
F#|--3--3--3--3--3--3--3--3----|--3--3--3--3--3--3--3--3----|
B |--3--3--3--3--3--3--3--3----|--3--3--3--3--3--3--3--3----|
                                                          
C#|----------------------------|----------------------------|
G#|----------------------------|----------------------------|
E |----------------------------|----------------------------|
B |--10-10-10-10-10-10-10-10---|--10-10-10-10-10-10-10-10---|
F#|--10-10-10-10-10-10-10-10---|--10-10-10-10-10-10-10-10---|
B |--10-10-10-10-10-10-10-10---|--10-10-10-10-10-10-10-10---|
                                                          
C#|----------------------------|----------------------------|
G#|----------------------------|----------------------------|
E |----------------------------|----------------------------|
B |--5--5--5--5--5--5--5--3----|--3--3--3--3--3--3--3--3----|
F#|--5--5--5--5--5--5--5--3----|--3--3--3--3--3--3--3--3----|
B |--5--5--5--5--5--5--5--3----|--3--3--3--3--3--3--3--3----|
                                                          
C#|----------------------------|----------------------------|
G#|----------------------------|----------------------------|
E |----------------------------|----------------------------|
B |--7--7--7--7--7--7--7--7----|--7--7--7--7--7--7--7--7----|
F#|--7--7--7--7--7--7--7--7----|--7--7--7--7--7--7--7--7----|
B |--7--7--7--7--7--7--7--7----|--7--7--7--7--7--7--7--7----|
                                                          
C#|----------------------------|----------------------------|
G#|----------------------------|----------------------------|
E |----------------------------|----------------------------|
B |--3--3--3--3--3--3--3--3----|--3--3--3--3--3--3--3--3----|
F#|--3--3--3--3--3--3--3--3----|--3--3--3--3--3--3--3--3----|
B |--3--3--3--3--3--3--3--3----|--3--3--3--3--3--3--3--3----|

[Bridge]                                                                          
C#|----------------------------|-------|----------------------------|-------|
G#|----------------------------|-------|----------------------------|-------|
E |----------------------------|-------|----------------------------|-------|
B |--2-----------------0M-3L---|--3----|--2-----------------0M-3L---|--3----|
F#|--2-----------------0--3L---|--3----|--2-----------------0--3L---|--3----|
B |--2-----------------0--3L---|--3----|--2-----------------0--3L---|--3----|
                                                                  
C#|----------------------------|-------|----------------------------|----------------------------|
G#|----------------------------|-------|----------------------------|----------------------------|
E |----------------------------|-------|----------------------------|----------------------------|
B |--2-----------------0M-3L---|--3----|--2-----------------0M-3----|--3L----------------3s-1----|
F#|--2-----------------0--3L---|--3----|--2-----------------0--3----|--3L----------------3s-1----|
B |--2-----------------0--3L---|--3----|--2-----------------0--3----|--3L----------------3s-1----|

[Solopart]                                     
C#|----------------------------|-------|
G#|----------------------------|-------|
E |----------------------------|-------|
B |--2L----------2M-2M-0M-3L---|--3M---|
F#|--2L----------2M-2M-0M-3L---|--3M---|
B |--2L----------2M-2M-0M-3L---|--3M---|
                                                                          
C#|----------------------------|-------|----------------------------|-------|
G#|----------------------------|-------|----------------------------|-------|
E |----------------------------|-------|----------------------------|-------|
B |--2L----------2M-2M-0M-3L---|--3M---|--2L----------2M-2M-0M-3L---|--3M---|
F#|--2L----------2M-2M-0M-3L---|--3M---|--2L----------2M-2M-0M-3L---|--3M---|
B |--2L----------2M-2M-0M-3L---|--3M---|--2L----------2M-2M-0M-3L---|--3M---|
                                                          
C#|----------------------------|----------------------------|
G#|----------------------------|----------------------------|
E |----------------------------|----------------------------|
B |--2L----------2M-2--0--3L---|--3L----------------3s-1----|
F#|--2L----------2M-2--0--3L---|--3L----------------3s-1----|
B |--2L----------2M-2--0--3L---|--3L----------------3s-1----|

[Chorus]                                                         
C#|----------------------------|----------------------------|
G#|----------------------------|----------------------------|
E |----------------------------|----------------------------|
B |--10-10-10-10-10-10-10-10---|--10-10-10-10-10-10-10-10---|
F#|--10-10-10-10-10-10-10-10---|--10-10-10-10-10-10-10-10---|
B |--10-10-10-10-10-10-10-10---|--10-10-10-10-10-10-10-10---|
                                                          
C#|----------------------------|----------------------------|
G#|----------------------------|----------------------------|
E |----------------------------|----------------------------|
B |--5--5--5--5--5--5--5--3----|--3--3--3--3--3--3--3--3----|
F#|--5--5--5--5--5--5--5--3----|--3--3--3--3--3--3--3--3----|
B |--5--5--5--5--5--5--5--3----|--3--3--3--3--3--3--3--3----|
                                                          
C#|----------------------------|----------------------------|
G#|----------------------------|----------------------------|
E |----------------------------|----------------------------|
B |--7--7--7--7--7--7--7--7----|--7--7--7--7--7--7--7--7----|
F#|--7--7--7--7--7--7--7--7----|--7--7--7--7--7--7--7--7----|
B |--7--7--7--7--7--7--7--7----|--7--7--7--7--7--7--7--7----|
                                                          
C#|----------------------------|----------------------------|
G#|----------------------------|----------------------------|
E |----------------------------|----------------------------|
B |--3--3--3--3--3--3--3--3----|--3--3--3--3--3--3--3--3----|
F#|--3--3--3--3--3--3--3--3----|--3--3--3--3--3--3--3--3----|
B |--3--3--3--3--3--3--3--3----|--3--3--3--3--3--3--3--3----|
                                                          
C#|----------------------------|----------------------------|
G#|----------------------------|----------------------------|
E |----------------------------|----------------------------|
B |--10-10-10-10-10-10-10-10---|--10-10-10-10-10-10-10-10---|
F#|--10-10-10-10-10-10-10-10---|--10-10-10-10-10-10-10-10---|
B |--10-10-10-10-10-10-10-10---|--10-10-10-10-10-10-10-10---|
                                                          
C#|----------------------------|----------------------------|
G#|----------------------------|----------------------------|
E |----------------------------|----------------------------|
B |--5--5--5--5--5--5--5--3----|--3--3--3--3--3--3--3--3----|
F#|--5--5--5--5--5--5--5--3----|--3--3--3--3--3--3--3--3----|
B |--5--5--5--5--5--5--5--3----|--3--3--3--3--3--3--3--3----|
                                                          
C#|----------------------------|----------------------------|
G#|----------------------------|----------------------------|
E |----------------------------|----------------------------|
B |--7--7--7--7--7--7--7--7----|--7--7--7--7--7--7--7--7----|
F#|--7--7--7--7--7--7--7--7----|--7--7--7--7--7--7--7--7----|
B |--7--7--7--7--7--7--7--7----|--7--7--7--7--7--7--7--7----|
                                                          
C#|----------------------------|----------------------------|
G#|----------------------------|----------------------------|
E |----------------------------|----------------------------|
B |--3--3--3--3--3--3--3--3----|--3--3--3--3--3--3--3--3----|
F#|--3--3--3--3--3--3--3--3----|--3--3--3--3--3--3--3--3----|
B |--3--3--3--3--3--3--3--3----|--3--3--3--3--3--3--3--3----|

[Outro]                                   
C#|----------------------------|-------|-------||
G#|----------------------------|-------|-------||
E |----------------------------|-------|-------||
B |--2L----------2--2M-0M-3L---|--3L---|--3----||
F#|--2L----------2--2M-0M-3L---|--3L---|--3----||
B |--2L----------2--2M-0M-3L---|--3L---|--3----||


************************************

| L - tied note  
| s - slide
| M - palm mute 

************************************

            
            
Suggest correction
Creating personal tab
Creating personal tab
You can edit any tab online and save it as your Personal.

You can edit, replace or remove any tab part or add personal notes – all changes will be seen only by you.

Personal tabs can be accessed anytime from any device, even offline.
Learn more »
Give kudos to tab author, rate the tab!
1 2 3 4 5
comments
print report bad tab
guest
You may want to rate the tab now too:
select rating
Wanna post a correction for this tab? Suggest correction