Oops, an error
Loading. Please wait.

I Have Seen Where It Grows Tab

325 views 1 this week
2 commentsread comments
1 2 3 4 5
2 more votes to show rating
add to favorites
launch autoscroll
font size
0
reset
how to read this tab
guitar tuner
×
Best way to learn
"I Have Seen Where It Grows"
Autoscroll
slow
fast
+/-
esc
set tempo
stop
Author
Difficulty
Tuning
intermediate
C G C F A D
I Have Seen Where It Grows by Demon Hunter
Drop C tuning (CGCFAD)
Ok, this is my first tab. Here goes nothing....

Update: Corrected the Intro, the Verse and the Outro by ear. This is my last attempt.

KEY:
. = palm mute
~ = let ring
/ = slide
h = Hammer-on
p = Pull-off

D------------------------------------------|
A------------------------------------------|
F------------------------------------------|
C---0-------0--5--0--0--0-------777--------|
G---0--6/4--0--5--0--0--0--555-------66----|
C---0-------0--5--0--0--0------------------|
         
D------------------------------------------|
A------------------------------------------|
F------------------------------------------|
C---0-------0--5--0--0--0-------777--------|
G---0--6/4--0--5--0--0--0--555-------6-----|
C---0-------0--5--0--0--0------------------|

Intro (continued): 
D------------------------------------------|
A------------------------------------------|
F------8/6---------------------------------|
C---0-------0--5--0--0--0-------777--------|
G---0--6/4--0--5--0--0--0--555-------66----|
C---0-------0--5--0--0--0------------------| X4
 

Verse:
D--------------------------------------------------|
A--------------------------------------------------|
F--------------------------------------------------|
C---------------------------2-----3-----2-----3----|
G---1--------4-----3--------3-----4-----3-----4----|
C---1--0--0--4--0--3--0--0-----0-----0-----0-----0-|
       .  .     .     .  .     .     .     .     .

D--------------------------------------------------|
A--------------------------------------------------|
F--------------------------------------------------|
C---------------------------2-----3-----2-----5----|
G---1--------4-----3--------3-----4-----3-----6----|
C---1--0--0--4--0--3--0--0-----0-----0-----0-----0-| Entire Verse X4
       .  .     .     .  .     .     .     .     .

Pre-Chorus:  
D-------------------------------------------------------------------|
A-------------------------------------------------------------------|
F-------------------------------------------------------------------|
C--2-2---0h2-0h2--2-2-2---0h2-0-8--8-8--0h2-0-5-5---10-10-10-10-----|
G--2-2---0h2-0h2--2-2-2---0h2-0-8--8-8--0h2-0-5-5---10-10-10-10-----|
C--2-2---0h2-0h2--2-2-2---0h2-0-8--8-8--0h2-0-5-5---10-10-10-10-----| X2

Chorus: 
D-----------------------------------------------|
A-----------------------------------------------|
F---------7--------7---------7-7----------------|
C--0--------------------------------------------|
G--0----------5------------------------3/6-6/5--|
C--0--------------------0--------------3/6-6/5--| X4

Play this on the 4th time:
D-----------------------------------------------------------------|
A-----------------------------------------------------------------|
F---------7--------7---------7-7----------------------------------|
C--0-----------------------------------------------0 ~ ~ ---------|
G--0----------5------------------------3/6-6/5-----0 ~ ~ ---------|
C--0--------------------0--------------3/6-6/5-----0 ~ ~ ---------|

After 1st chorus, repeat intro, verse, pre-chorus, and chorus

Bridge:
D-----------------------------|
A-----------------------------|
F-----------------------------|
C-6-6-6-6-6-6-6-6-6-0~ ~ ~ ---|
G-6-6-6-6-6-6-6-6-6-0~ ~ ~ ---|
C-6-6-6-6-6-6-6-6-6-0~ ~ ~ ---|


Bridge (continued):  X7
D------------------------------------------|
A------------------------------------------|
F----------------------------5-------------|
C----------7--------------------------7----|
G--5--------------6------------------------|
C------------------------------------------|

Outro: (keeps going until it fades out)
D---------------------------------------|
A---------------------------------------|
F-----------------------------88888-----|
C-----------------------------77777-----|
G------4/3/4/3/4------------------------|
C--00--------------000--0---------------|
   ..              ...  .

The End! Please rate or comment. Any corrections would be nice.
Suggest correction
Give kudos to tab author, rate the tab!
1 2 3 4 5
comments
print report bad tab
2 comments total.
0 reply
f1stbr34k3r 12 Dec 16, 2016 07:57 AM

I'm done trying to correct this, I keep screwing up myself and it seems I spammed the upload board. There really should be a remove function if more corrections are found by the same person that attempted to correct.

Well, sorry about that.

The intro, the verse and the outro are incorrect.

Intro:
D------------------------------------------|
A------------------------------------------|
F------------------------------------------|
C---0-------0--5--0--0--0-------777--------|
G---0--6/4--0--5--0--0--0--555-------66----|
C---0-------0--5--0--0--0------------------|

Verse:
D--------------------------------------------------|
A--------------------------------------------------|
F--------------------------------------------------|
C---------------------------2-----3-----2-----2----|
G---1--------4-----3--------3-----4-----3-----3----|
C---1--0--0--4--0--3--0--0----0-----0-----0-----0--|
. . . . . . . . .

D--------------------------------------------------|
A--------------------------------------------------|
F--------------------------------------------------|
C---------------------------2-----3-----2-----5----|
G---1--------4-----3--------3-----4-----3-----6----| C---1--0--0--4--0--3--0--0-----0-----0-----0-----0-| Entire Verse X4
. . . . . . . . .
And the outro misses an isolated palm muted 0 right after the gallop.

There are probably not 100% correct, but hopefully it help it sound better.

0 reply
f1stbr34k3r 12 Dec 16, 2016 08:00 AM

Forgot to add that once the intro effect ends, they add the third string with the harmonic equivalent of the fifth string,

Or they could be using all 3 strings for the power chord, beats me, I'm not good enough to determine that yet.

guest
You may want to rate the tab now too:
select rating
Wanna post a correction for this tab? Suggest correction