Oops, an error
Loading. Please wait.

I Have Seen Where It Grows Tab

277 views 3 this week
no commentswrite comment
1 2 3 4 5
3 more votes to show rating
add to favorites
launch autoscroll
font size
0
reset
how to read this tab
guitar tuner
Autoscroll
slow
fast
+/-
esc
set tempo
stop
Help us to improve Ultimate-Guitar.com Take our survey!
×
Author
Difficulty
Tuning
intermediate
C G C F A D
I Have Seen Where It Grows by Demon Hunter
Drop C tuning (CGCFAD)
Ok, this is my first tab. Here goes nothing....

KEY:
. = palm mute
~ = let ring
/ = slide
h = Hammer-on
p = Pull-off

Intro:
D----------------------------------------------------|
A----------------------------------------------------|
F----------------------------------------------------|
C-------7h5----------5p0-00---------777--------------|
G---5----------6-----5p0-00----555--------66---------|
C--------------------5p0-00--------------------------|

D---------------------------------------------------|
A---------------------------------------------------|
F---------------------------------------------------|
C-------7h5----------5p0-00---------777-------------|
G---5----------6-----5p0-00-----555--------6--------|
C--------------------5p0-00-------------------------|

Intro (continued): X4
D------------------------------------------------------|
A------------------------------------------------------|
F------------------------------------------------------|
C--------7h5---------5p0-00---------777----------------|
G---5----------6-----5p0-00----555--------66-----------|
C--------------------5p0-00----------------------------|


Verse: X4
D------------------------------------------|
A------------------------------------------|
F--------------------------6---7--6--7-----|
C--------------------------3---4--3--4-----|
G--0------1-----0--------------------------|
C--0--00--1--0--0--0-----------------------|
      ..     .     .


D------------------------------------------|
A------------------------------------------|
F--------------------------6---7--6--9-----|
C--------------------------3---4--3--6-----|
G--0------1-----0--------------------------|
C--0--00--1--0--0--0-----------------------|
      ..     .     .

Pre-Chorus:  X2
D-------------------------------------------------------------------|
A-------------------------------------------------------------------|
F-------------------------------------------------------------------|
C--2-2---0h2-0h2--2-2-2---0h2-0-8--8-8--0h2-0-5-5---10-10-10-10-----|
G--2-2---0h2-0h2--2-2-2---0h2-0-8--8-8--0h2-0-5-5---10-10-10-10-----|
C--2-2---0h2-0h2--2-2-2---0h2-0-8--8-8--0h2-0-5-5---10-10-10-10-----|

Chorus:  X4
D-----------------------------------------------|
A-----------------------------------------------|
F---------7--------7---------7-7----------------|
C--0--------------------------------------------|
G--0----------5------------------------3/6-6/5--|
C--0--------------------0--------------3/6-6/5--|

Play this on the 4th time:
D-----------------------------------------------------------------|
A-----------------------------------------------------------------|
F---------7--------7---------7-7----------------------------------|
C--0-----------------------------------------------0 ~ ~ ---------|
G--0----------5------------------------3/6-6/5-----0 ~ ~ ---------|
C--0--------------------0--------------3/6-6/5-----0 ~ ~ ---------|

After 1st chorus, repeat intro, verse, pre-chorus, and chorus

Bridge:
D-----------------------------|
A-----------------------------|
F-----------------------------|
C-6-6-6-6-6-6-6-6-6-0~ ~ ~ ---|
G-6-6-6-6-6-6-6-6-6-0~ ~ ~ ---|
C-6-6-6-6-6-6-6-6-6-0~ ~ ~ ---|


Bridge (continued):  X7
D-------------------------------------|
A-------------------------------------|
F-------------------------5-----------|
C----------7---------------------7----|
G--5--------------6-------------------|
C-------------------------------------|

Outro: (keeps going until it fades out)
D---------------------------------------|
A---------------------------------------|
F-----------------------------88888-----|
C-----------------------------77777-----|
G------4/3/4/3/4------------------------|
C--00--------------000------------------|
   ..              ...

The End! Please rate or comment. Any corrections would be nice.
Suggest correction
Give kudos to tab author, rate the tab!
1 2 3 4 5
comments
print report bad tab
guest
You may want to rate the tab now too:
select rating
Wanna post a correction for this tab? Suggest correction