Oops, an error
Loading. Please wait.

I Will Fail You Tab

49 views 27 this week
no commentswrite comment
1 2 3 4 5
3 more votes to show rating
add to favorites
launch autoscroll
font size
0
reset
how to read this tab
guitar tuner
Autoscroll
slow
fast
+/-
esc
set tempo
stop
Help us to improve Ultimate-Guitar.com Take our survey!
×
Author
Difficulty
Tuning
novice
B F# B E G# C#
-------------------------------------------------------------------------------
                             I Will Fail You - Demon Hunter
-------------------------------------------------------------------------------
Tabbed by:Nick
Check out my cover on youtube http://youtu.be/AUlZer-rWTM and feel free to correct anything especially the 
solo because I am not positive about that.
E-mail:Nicholaslb@comcast.net
The key is down at the bottom

Tuning: Drop B

This part continues in the background when the other is playing the bar chords.

  Guitar 1
C#|--------------|---------------------|--------|-----------------------------|
G#|o------0------|-----------0---------|-------o|-----------------------------|
E |----5---5-5---|--------5---5-5------|--------|-----------------------------|
B |---2-2---2----|--X4---3-3---3-------|--X4----|-----------------------------|
F#|o-0-----------|------0--------------|-------o|-----------------------------|
B |--------------|---------------------|--------|-----------------------------|

  Guitar 2
C#|----|----------------------------------------------------------------------|
G#|----|----------------------------------------------------------------------|
E |----|----------------------------------------------------------------------|
B |--5-|-3-3----3-3-3-3----3-3-----3-3-3-3------5------7-7----7-7-7-7---------|
F#|--5-|-3-3----3-3-3-3----3-3-----3-3-3-3------5------7-7----7-7-7-7---------|
B |--5-|-3-3----3-3-3-3----3-3-----3-3-3-3------5------7-7----7-7-7-7---------|
    +   * *    * * * *    * *     * * * *      +      * *    * * * *
|---------------------------------------------------------------------------|
|---------------------------------------------------------------------------|
|---------------------------------------------------------------------------|
|-7-7-----7-7-7-7-----5----3-3---3-3-3-3-----3-3----3-3-3-3-----5-----------|
|-7-7-----7-7-7-7-----5----3-3---3-3-3-3-----3-3----3-3-3-3-----5-----------|
|-7-7-----7-7-7-7-----5----3-3---3-3-3-3-----3-3----3-3-3-3-----5-----------|
   * *     * * * *     +    * *   * * * *     * *    * * * *     +
|---------------------------------------------------------------------------|
|---------------------------------------------------------------------------|
|---------------------------------------------------------------------------|
|-7-7-----7-7-7-7----7-7----7-7-7-7----5-----3-3---3-3-3-3----3-3---3-3-3-3
|-7-7—----7-7-7-7----7-7----7-7-7-7----5-----3-3---3-3-3-3----3-3---3-3-3-3-|
|-7-7-----7-7-7-7----7-7----7-7-7-7----5-----3-3---3-3-3-3----3-3---3-3-3-3-|
  * *     * * * *    * *    * * * *    +     * *   * * * *    * *   * * * *
|---------------------------------------------------------------------------|
|---------------------------------------------------------------------------|
|---------------------------------------------------------------------------|
|-5----7---3---7----5----0-0---5----5-5-------------------------------------|
|-5----7---3---7----5----0-0---5----5-5-------------------------------------|
|-5----7---3---7----5----0-0---5----5-5-------------------------------------|
  +    +   +   +    +    * *   +    + +
Chorus Let them all ring out
|----------------------------------------------------|----------------------|
|o--------------------------------------------------o|----------------------|
|----------------------------------------------------|----------------------|
|-3--3-3-3----5--5-5-5----7--7-7-7-7--5--------------|----------------------|
|o3--3-3-3----5--5-5-5----7--7-7-7-7--5-------------o|----------------------|
|-3--3-3-3----5--5-5-5----7--7-7-7-7--5--------------|----------------------|

C#|---------------------------------------------------------------------------|
G#|---------------------------------------------------------------------------|
E |-------------5---4---------------------------------------------------------|
B |-3-3---5-5---5---4---3--3-3-3-3-3---5-5--7-7-------------------------------|
F#|-3-3---5-5---3---2---3--3-3-3-3-3---5-5--7-7-------------------------------|
B |-3-3---5-5-----------3--3-3-3-3-3---5-5--7-7-------------------------------|


  [Solo]                                      Not positive about this part but pretty sure.
  The solo has weird bends and if you bend 
  them too high or not high enough it wont 
  sound right.
C#|--------------------------------------|------------------------------------|
G#|--------------------------------------|------------------------------------|
E |--------------------------------------|------------------------------------|
B |--12b13r12---10h12--12b13r12---10h12--|10--12--13--14--15--17--15--14------|
F#|--------------------------------------|------------------------------------|
B |--------------------------------------|------------------------------------|



  Theres a vibrato on the 12th
C#|--------------------------------|-------------------------------------------|
G#|--13b14r13---12b13r12--10--12~--|---13b14~---13-15b16~----20t--16b----------|
E |--------------------------------|-------------------------------------------|
B |------------------------------X2|-------------------------------------------|
F#|--------------------------------|-------------------------------------------|
B |--------------------------------|-------------------------------------------|

                                                             Sorry don’t have this part
C#|--20--19----------------------------|---------------------------------------|
G#|----------20------------------------|---------------------------------------|
E |--------------19--20--12--14--------|----12b13r12--9h12--12b13r12--9h12-----|
B |------------------------------------|---------------------------------------|
F#|------------------------------------|---------------------------------------|
B |------------------------------------|---------------------------------------|



                                        
C#|--13p12-----------------------------|--------------------------------------|
G#|---------13-------------------------|--------------------------------------|
E |-------------12--14--12--5--7--4----|--9--11--12--9--11--12----------------|
B |------------------------------------|--------------------------------------|
F#|------------------------------------|--------------------------------------|
B |------------------------------------|--------------------------------------|

C#|--------------------------------------------------------------------9h11h12|
G#|----------------------------------------9h11h12------------9h11h12---------|
E |------------9h11h12-----------9h11h12-------------9h11h12------------------|
B |---------------------9h11h12-----------------------------------------------|
F#|--9h11h12------------------------------------------------------------------|
B |---------------------------------------------------------------------------|

C#|--/17----------------------------------------------------------------------|
G#|---------------------------------------------------------------------------|
E |---------------------------------------------------------------------------|
B |---------------------------------------------------------------------------|
F#|---------------------------------------------------------------------------|
B |---------------------------------------------------------------------------|

Sorry don’t have the acoustic part either I am not very good at figuring those out


              Stop here after the repeat.
C#|--------------------------------------------|------------------------------|
G#|o-------------------------------------------|------------------------------|
E |-------------5--4---------------------------|------------------------------|
B |--3-3--5-5---5--4---3--3-3-3-3-3---5-5--7-7-|-5--3-3--5-5--7-7--5--3-3--5-5|
F#|o-3-3--5-5---3--2---3--3-3-3-3-3---5-5--7-7-|-5--3-3--5-5--7-7--5--3-3--5-5|
B |--3-3--5-5----------3--3-3-3-3-3---5-5--7-7-|-5--3-3--5-5--7-7--5--3-3--5-5|

C#|------------|--------------------------------------------------------------|
G#|-----------o|--------------------------------------------------------------|
E |------------|--------------------------------------------------------------|
B |--7-7--5-5--|--------------------------------------------------------------|
F#|--7-7--5-5-o|--------------------------------------------------------------|
B |--7-7--5-5--|--------------------------------------------------------------|


************************************

| h  Hammer-on
| r  Release
| b  Bend
| t  Tapping
| ~  Vibrato
| p  Pull-off
| /  Slide up

************************************
Suggest correction
Give kudos to tab author, rate the tab!
1 2 3 4 5
comments
print report bad tab
guest
You may want to rate the tab now too:
select rating
Wanna post a correction for this tab? Suggest correction