Oops, an error
Loading. Please wait.

Infected Tab

version 2
version 2

Whole song

Interactive

1,109 views 1 this week
2 commentsread comments
1 2 3 4 5
please rate
add to favorites
launch autoscroll
font size
0
reset
how to read this tab
guitar tuner
Autoscroll
slow
fast
+/-
esc
set tempo
stop
Help us to improve Ultimate-Guitar.com Take our survey!
×
Author
Difficulty
Tuning
intermediate
C G C F A D
  The other tab wasn't quite right so heres the right way to playit.

  Intro(4x)       Verse Riff 1(2x)
d|---------------|-----------------|
A|---------------|-----------------|
F|-3~3~3~3~------|-3---------------|
C|-3~3~3~3~------|-x---------------|
G|-1~1~1~1~------|-1---------------|
C|---------4-3-0-|---0-1-0-2-3-2-0-|
  Verse Riff 1(8x)
  Verse Riff 2(2x)
d|----------------------------------|
A|----------------------------------|
F|----------------------------------|
C|-6666666666666-1-x-0-000000000000-|
G|-6666666666666-1-x-0-000000000000-|
C|-6666666666666-1-x-0-000000000000-|
  Chorus
  Guitar 1(This part 2x/Whole thing 2x)
d|-------------|-------------------------------|
A|-------------|-------------------------------|
F|-------------|-------------------------------|
C|-----8~~~~~~~|-44444444444444444444444444444-|
G|---6~~~6~~~6~|-44444444444444444444444444444-|
C|-6~~~~~~~6~~~|-44444444444444444444444444444-|
 |Guitar 2(w/Wah)
d|-------------|----------------------------------|
A|-------------|----------------------------------|
F|-------------|----------------------------------|
C|-------------|----------------------------------|
G|-------------|-4b4b4b4b4b4b4b4b4b4b4b4b4b4b4b4b-|
C|-------------|----------------------------------|
  Verse Riff 1
  Verse Riff 2
  Chorus
  Bridge(Bunch'o x)
d|-----------|
A|-----------|
F|----2~~~~~~|
C|-1~~--2~~~~|
G|-1~~----3b~|
C|-1~~-------|
  Bridge Riff 2(few x)
d|---------------|
A|---------------|
F|--------2~~~~~~|
C|-1~1-1~~--2~~~~|
G|-1~1-1~~----3b~|
C|-1~1-1~~-------|
  End with verse riff 1

        Ezy right?
                 -J    
Suggest correction
Give kudos to tab author, rate the tab!
1 2 3 4 5
comments
print report bad tab
2 comments total.
0 reply
patrickroyfan 51 wrote on September 21 2009, 09:01 pm

Instead of playing:

Intro(4x) Verse Riff 1(2x)
d|---------------|-----------------|
A|---------------|-----------------|
F|-3~3~3~3~------|-3---------------|
C|-3~3~3~3~------|-x---------------|
G|-1~1~1~1~------|-1---------------|
C|---------4-3-0-|---0-1-0-2-3-2-0-|

I play:
Intro(4x) Verse Riff 1(2x)
d|--------------------|-----------------|
A|--------------------|-----------------|
F|--------------------|-3---------------|
C|-3~3~3~3~-----------|-x---------------|
G|-1~1~1~1~-----------|-1---------------|
C|---------0h1p0-0h1p0|---0-1-0-1-3-1-0-|

It just sounds a bit more accurate to me...

Also...

during verse riff 2, the rhythm guitarist is playing what you have tabbed out, while the lead guitarist plays (from what i saw on the 45 days dvd) octaves (4 and 6 on the G and F strings, then 3 and 5)...Patrick uses a wah pedal for this part live, but it sounds fine without...

0 reply
patrickroyfan 51 wrote on September 21 2009, 09:02 pm

correction to my correction, the octaves are 6 and 8, then 5 and 7

guest
You may want to rate the tab now too:
select rating
Wanna post a correction for this tab? Suggest correction