Oops, an error
Loading. Please wait.

My Heartstrings Come Undone Tab

version 4
version 4

Whole song

Interactive

502 views 3 this week
no commentswrite comment
1 2 3 4 5
please rate
add to favorites
launch autoscroll
font size
0
reset
how to read this tab
guitar tuner
Tab Pro tools
  • play this tab
  • loop segment
  • change instrument
  • show fretboard
  • metronome
×
Best way to learn
"My Heartstrings Come Undone"
Autoscroll
slow
fast
+/-
esc
set tempo
stop
Difficulty
Tuning
intermediate
B F# B E G# C#
This is my first tab so it may not be the best. Email me for corrections. Hope it helps.
Tuning is Drop B.


C#|----8-------8-------7------7-------7-------7----------------|
G#|--8-------8-------8------8-------7-------7--------8-------8-|
E |-9-9-----9-9-----7-7----7-7-----7-7-----7-7-----9-------9---|
B |-----------------------------------------------7-7-----7-7--|
F#|------------------------------------------------------------|
B |------------------------------------------------------------|

Play the top 3 strings open 3 times then the next part
C#|-------|
G#|-------|
E |-------|
B |-0-0-0-|
F#|-0-0-0-|
B |-0-0-0-|

Chords change every 2 measures (play each 16 times)
C#|-----------------------------------------|
G#|-----------------------------------------|
E |-----------------------------------------|
B |-2--5--X--7----2--5--0--7----2--5--0--7--|
F#|-2--5--X--7----2--5--0--7----2--5--0--7--|
B |-2--5--X--7----2--5--0--7----2--5--0--7--|

C#|---------------------------------------------------------------------|
G#|---------------------------------------------------------------------|
E |---------------------------------------------------------------------|
B |-2-2-2-2-3-3-3-0----0-0-0-5-5-5-5----2-2-2-2-3-3-3-5----5-5-5-5-5-5-5|
F#|-2-2-2-2-3-3-3-0----0-0-0-5-5-5-5----2-2-2-2-3-3-3-5----5-5-5-5-5-5-5|
B |-2-2-2-2-3-3-3-0----0-0-0-5-5-5-5----2-2-2-2-3-3-3-5----5-5-5-5-5-5-5|

Play this (Twice)
C#|------------------------------------------------------------------------|
G#|------------------------------------------------------------------------|
E |------------------------------------------------------------------------|
B |-10-10-10-10-10-10-10-10-0-0-0-0-0-0-0-0-2-2-2-2-2-2-2-2-5-5-5-5-5-5-5-5|
F#|-10-10-10-10-10-10-10-10-0-0-0-0-0-0-0-0-2-2-2-2-2-2-2-2-5-5-5-5-5-5-5-5|
B |-10-10-10-10-10-10-10-10-0-0-0-0-0-0-0-0-2-2-2-2-2-2-2-2-5-5-5-5-5-5-5-5|
                                   X2
Play each 16 times again.
C#|------------|
G#|------------|
E |------------|
B |-2--5--0--7-|
F#|-2--5--0--7-|
B |-2--5--0--7-|

Play this 3 times
C#|------------------------------------|
G#|------------------------------------|
E |------------------------------------|
B |-2-2-2-2-3-3-3-0----0-0-0-0-5-5-5-5-|
F#|-2-2-2-2-3-3-3-0----0-0-0-0-5-5-5-5-|
B |-2-2-2-2-3-3-3-0----0-0-0-0-5-5-5-5-|


C#|----------------------------------|
G#|----------------------------------|
E |----------------------------------|
B |-2-2-2-2-3-3-3-5----5-5-5-5-5-5-5-|
F#|-2-2-2-2-3-3-3-5----5-5-5-5-5-5-5-|
B |-2-2-2-2-3-3-3-5----5-5-5-5-5-5-5-|

Play this Twice
C#|-------------------------------------------------------------------------|
G#|-------------------------------------------------------------------------|
E |-------------------------------------------------------------------------|
B |-10-10-10-10-10-10-10-10-0-0-0-0-0-0-0-0-2-2-2-2-2-2-2-2-5-5-5-5-5-5-5-5-|
F#|-10-10-10-10-10-10-10-10-0-0-0-0-0-0-0-0-2-2-2-2-2-2-2-2-5-5-5-5-5-5-5-5-|
B |-10-10-10-10-10-10-10-10-0-0-0-0-0-0-0-0-2-2-2-2-2-2-2-2-5-5-5-5-5-5-5-5-|
                                      X2

C#|----------------------------------------------------------------|
G#|----------------------------------------------------------------|
E |----------------------------------------------------------------|
B |-2-2-2-2-2-2-2-2-0-0-0-0-0-0-0-0-1-1-1-1-1-1-1-1-3-3-3-3-3-3-3-3|
F#|-2-2-2-2-2-2-2-2-0-0-0-0-0-0-0-0-1-1-1-1-1-1-1-1-3-3-3-3-3-3-3-3|
B |-2-2-2-2-2-2-2-2-0-0-0-0-0-0-0-0-1-1-1-1-1-1-1-1-3-3-3-3-3-3-3-3|

Play that once & then when you do it again, Only play the 3's 4 times:
C#|--------------------------------------------------------|
G#|--------------------------------------------------------|
E |--------------------------------------------------------|
B |-2-2-2-2-2-2-2-2-0-0-0-0-0-0-0-0-1-1-1-1-1-1-1-1-3-3-3-3|
F#|-2-2-2-2-2-2-2-2-0-0-0-0-0-0-0-0-1-1-1-1-1-1-1-1-3-3-3-3|
B |-2-2-2-2-2-2-2-2-0-0-0-0-0-0-0-0-1-1-1-1-1-1-1-1-3-3-3-3|

Play this 4 times
C#|------------------------------------------------------------------------|
G#|------------------------------------------------------------------------|
E |------------------------------------------------------------------------|
B |-10-10-10-10-10-10-10-10-0-0-0-0-0-0-0-0-2-2-2-2-2-2-2-2-5-5-5-5-5-5-5-5|
F#|-10-10-10-10-10-10-10-10-0-0-0-0-0-0-0-0-2-2-2-2-2-2-2-2-5-5-5-5-5-5-5-5|
B |-10-10-10-10-10-10-10-10-0-0-0-0-0-0-0-0-2-2-2-2-2-2-2-2-5-5-5-5-5-5-5-5|

When get to the last 2's just go crazy ;)
C#|-------------------------------------------------------------------|
G#|-------------------------------------------------------------------|
E |-------------------------------------------------------------------|
B |-10-----0-----2-----5---------222222222222222222222222222222-----2-|
F#|-10-----0-----2-----5---------222222222222222222222222222222-----2-|
B |-10-----0-----2-----5---------222222222222222222222222222222-----2-|


                              GUITAR TWO
          Guitar two plays in part of the song. listen for it.
C#|--------------------------------------------------------------|
G#|----1-------1-------0-------0-------0-------0-----------------|
E |--0-------0-------0-------0-------------------------0-------0-|
B |-2-2-----2-2-----0-0-----0-0------4-------4-------2-------2---|
F#|---------------------------------5-5-----5-5-----0-0-----0-0--|
B |--------------------------------------------------------------|

comments
We did not receive enough feedback on this tab! Please rate:
print report bad tab
1 2 3 4 5
I want to post or [tab]
guest
You may want to rate the tab now too:
select rating
Please do not post tabs as comments. Select "correction" instead!