Oops, an error
Loading. Please wait.

Not I Bass Tab

version 2
version 2

Whole song

597 views 1 this week
no commentswrite comment
1 2 3 4 5
please rate
add to favorites
launch autoscroll
font size
0
reset
guitar tuner
Autoscroll
slow
fast
+/-
esc
set tempo
stop
Help us to improve Ultimate-Guitar.com Take our survey!
×
Author
 I love Demon Hunter and I love this song. I'm pretty sure that this song has
100% accuracy...enjoy. Also check out my 5-string version!

INTRO!!!

E|-----------------|-------------------------------------------------------|
B|-----------------|-------------------------------------------------------|
F|-----------------|-------------------------------------------------------|
B|-6-5-3-1-0134310-|----0121----0121----0121-0-0-0-0-0121-0110101111110121-|

E|---------------------------------------------------------------------|
B|---------------------------------------------------------------------|
F|---------------------------------------------------------------------|
B|-0110101111110121-0110101111110121-0110101111110121-0110101111110121-|

E|----------------------|
B|----------------------|
F|----------------------|
B|-655-655-65655-655-65-|

VERSE 1!!!

E|---------------------------------------------------------------------|
B|---------------------------------------------------------------------|
F|---------------------------------------------------------------------|
B|-0110101111110121-0110101111110121-0110101111110121-0110101111110121-|

E|----------------------|
B|----------------------|
F|----------------------|
B|-655-655-65655-655-65-|(Play verse 2x)

PRE-CHORUS!!!

E|---------------------------------------------------------------|
B|---------------------------------------------------------------|
F|---------------------------------------------------------------|
B|-3-3-3-3-3-3-3-3-3-3-3-3-3-3-3-3-6-6-6-6-6-6-6-6-6-6-6-6-6-6-1-|

E|-------------------------------------------------------------|
B|-------------------------------------------------------------|
F|-------------------------------------------------------------|
B|-3-3-3-3-3-3-3-3-3-3-3-3-3-3-3-3-6-6-6-6-6-6-6-6-6-6-6-6-6-6-|

CHORUS!!!

E|------------------|
B|------------------|
F|------------------|
B|-1-1-000000000000-|(Play 4x)

E|------------------|
B|------------------|
F|------------------|
B|-6-6-000000000000-|(Play 3x)

E|-----------------------------------|
B|-----------------------------------|
F|-----------------------------------|
B|-6-6-0000000-655-655-656-55-655-65-|

(PLAY VERSE 2X)

(PLAY PRE-CHORUS)

(PLAY CHORUS)

BRIDGE!!!

*=let ring
E|--------------------|
B|--------------------|
F|-88888888888888888*-|
B|--------------------|

Do this next part after Ryan says, "Reach back behind your pride; Pull the thorn form 
burning pain in your side."

E|-----------------------------------------|
B|-----------------------------------------|
F|-----------------------------------------|
B|-0000-0000-0000-0000-0000-0000-0000-0000-|

Hold, guitar plays 1 measure

"Sing me a new song..."
E------------------------------------|
B------------------------------------|
F------------------------------------|
B-0-0-0-0--0-0-0-0--0-0-0-0--0-0-0-0-| X4

E-----------------------|
B-----------------------|
F-----------------------|
B-6-4-3-1-0-1-3-4-3-1-0-|

E------------------------------------|
B------------------------------------|
F------------------------------------|
B-0-0-0-0--0-0-0-0--0-0-0-0--0-0-0-0-| X4

Hold, Guitar plays this measure

(PLAY CHORUS)

ENDING!!!
E----------------|
B----------------|
F----------------|
B-6-5-5-6-5-1-0--|
Suggest correction
Give kudos to tab author, rate the tab!
1 2 3 4 5
comments
print report bad tab
guest
You may want to rate the tab now too:
select rating
Please do not post tabs as comments. Select "correction" instead!