Oops, an error
Loading. Please wait.

One Thousand Apologies Tab

version 1
version 1

Whole song

Interactive

8,324 views 1 this week
16 commentsread comments
1 2 3 4 5
x 10
add to favorites
launch autoscroll
font size
0
reset
how to read this tab
guitar tuner
×
Best way to learn
"One Thousand Apologies"
Autoscroll
slow
fast
+/-
esc
set tempo
stop
Author
Difficulty
Tuning
  follow
intermediate
B F# B E G# C#
Tuning: Drop B (B-F#-B-E-G#-C#)

[Intro]
(Guitar 1) 
(Ethan - Lead)
C#|--5-----------5----------5-----------------------|
G#|-----5^-3-5-----5^-3-5-----5^-3-5----------------|
E |------------------------------------5-4/5\4-2-4v-|
B |-------------------------------------------------|
F#|-------------------------------------------------|
B |-------------------------------------------------|

C#|--5-----------5----------5------------------------|
G#|-----5^-3-5-----5^-3-5-----5^-3-5-----------------|
E |------------------------------------5-4/5\4-2-----|
B |----------------------------------------------5*v-|
F#|--------------------------------------------------|
B |--------------------------------------------------|

(Guitar 2) 
(Don - Rythem) (When Sliding up to the 14, strum it,
 then slide down to the 3, Let the 5 ring and hold it)
C#|-----------------------------------------------------|
G#|-----------------------------------------------------|
E |-----------------------------------------------------|
B |--7-7-7-7-7-10-10-10-10-10-/14-\-3-3-3-3-3-3-3-3-3-5-|
F#|-7-7-7-7-7-10-10-10-10-10-/14-\-3-3-3-3-3-3-3-3-3-5--|
B |--7-7-7-7-7-10-10-10-10-10-/14-\-3-3-3-3-3-3-3-3-3-5-| (x2)

[Interlude]
(Both Guitars)
C#|---------------|
G#|---------------|
E |---------------|
B |--7-7-7--7-7-7-|
F#|-7-7-7--7-7-7--|
B |--7-7-7--7-7-7-|

[Verse]
(Both Guitars)
"There You stood in disbelief, Trying all you could to see.."
C#|-----------------------------------------------------------------------|
G#|-----------------------------------------------------------------------|
E |-----------------------------------------------------------------------|
B |--------5-5-5-------5-5-5-----5-5-5------------------------------------|
F#|-0-0-0-------0-0-0------0-0-0-----------5-5-5-------5-5-5-------5-5-5--|
B |------------------------------------5-5-5------5-5-5-------5-5-5-------|

C#|----------------------------------------------------------------------|
G#|----------------------------------------------------------------------|
E |----------------------------------------------------------------------|
B |--------2-2-2-------2-2-2-------2-2-2---------------------------------|
F#|-------------------------------------------5-5-5-------5-5-5-3-3-3-3--|
B |--2-2-2-------2-2-2-------2-2-2-------3-3-3-------3-3-3---------------| (x2)

(Both Guitars)
 "And knowing what Ive done to you, With everybody suffered through..."
C#|-----------------------------------------------------------------|
G#|-----------------------------------------------------------------|
E |-----------------------------------------------------------------|
B |--7-7-7--7-7-7--7-7-7--5-5-5--5-5-5--5-5-5--2-2-2--2-2-2--2-2-2--|
F#|-7-7-7--7-7-7--7-7-7--5-5-5--5-5-5--5-5-5--2-2-2--2-2-2--2-2-2---|
B |--7-7-7--7-7-7--7-7-7--5-5-5--5-5-5--5-5-5--2-2-2--2-2-2--2-2-2--|

C#|-----------------------|
G#|-----------------------|
E |-----------------------|
B |--3-3-3--3-3-3--3-3-3--|
F#|-3-3-3--3-3-3--3-3-3---|
B |--3-3-3--3-3-3--3-3-3--| (x2)

[Pre-Chorus]
(Both Guitars)
"All the delicate ways, That I deepened our graves..."
C#|--------------------------------------------------------------|
G#|--------------------------------------------------------------|
E |--------------------------------------------------------------|
B |--------------------------------------------------------------|
F#|--------------------------------------------------------------|
B |--5-5-5-5-5-5-5-5-5-5-5-5-7-7-7-3-3-3-3-3-3-3-3-3-3-3-3-7-7-7-|

C#|-----------------------------------------------------------|
G#|-----------------------------------------------------------|
E |-----------------------------------------------------------|
B |-----------------------------------------------------------|
F#|-----------------------------------------------------------|
B |--2-2-2-2-2-2-2-2-2-2-2-2-7-7-7-3-3-3-3-3-3-3-3-3-3-3-3-3--|

[Chorus]
(Guitar 1: Ethan - Lead)
(Listen to song for the Rythem)
"Oh, The pain in your eyes, My regrets have never known.."
C#|-15-15-15-15-------------15-15-15-15----------------------------|
G#|-------------13-13-13-13------------13-13-13-13--10-12-13-12-8--|
E |----------------------------------------------------------------|
B |----------------------------------------------------------------|
F#|----------------------------------------------------------------|
B |----------------------------------------------------------------|

C#|-15-15-15-15-------------15-15-15-15-----------------------------|
G#|-------------13-13-13-13------------13-13-13-13--10-12-13-12-10--|
E |-----------------------------------------------------------------|
B |-----------------------------------------------------------------|
F#|-----------------------------------------------------------------|
B |-----------------------------------------------------------------| (x2)

(Guitar 2) 
(Don - Rythem)
C#|------------------------------------------------------|
G#|------------------------------------------------------|
E |------------------------------------------------------|
B |--7-7-7-7-7-10-10-10-10-10-/14-\-3-3-3-3-3-3-3-3-3-5--|
F#|-7-7-7-7-7-10-10-10-10-10-/14-\-3-3-3-3-3-3-3-3-3-5---|
B |--7-7-7-7-7-10-10-10-10-10-/14-\-3-3-3-3-3-3-3-3-3-5--| (x4)

[Interlude]
(Both Guitars)
C#|---------------|
G#|---------------|
E |---------------|
B |--7-7-7--7-7-7-|
F#|-7-7-7--7-7-7--|
B |--7-7-7--7-7-7-|

[Verse]
(Both Guitars)
"There You stood in disbelief, Trying all you could to see.."
C#|-----------------------------------------------------------------------|
G#|-----------------------------------------------------------------------|
E |-----------------------------------------------------------------------|
B |--------5-5-5-------5-5-5-----5-5-5------------------------------------|
F#|-0-0-0-------0-0-0------0-0-0-----------5-5-5-------5-5-5-------5-5-5--|
B |------------------------------------5-5-5------5-5-5-------5-5-5-------|

C#|----------------------------------------------------------------------|
G#|----------------------------------------------------------------------|
E |----------------------------------------------------------------------|
B |--------2-2-2-------2-2-2-------2-2-2---------------------------------|
F#|-------------------------------------------5-5-5-------5-5-5-3-3-3-3--|
B |--2-2-2-------2-2-2-------2-2-2-------3-3-3-------3-3-3---------------| (x2)

(Both Guitars)
 "And knowing what Ive done to you, With everybody suffered through..."
C#|-----------------------------------------------------------------|
G#|-----------------------------------------------------------------|
E |-----------------------------------------------------------------|
B |--7-7-7--7-7-7--7-7-7--5-5-5--5-5-5--5-5-5--2-2-2--2-2-2--2-2-2--|
F#|-7-7-7--7-7-7--7-7-7--5-5-5--5-5-5--5-5-5--2-2-2--2-2-2--2-2-2---|
B |--7-7-7--7-7-7--7-7-7--5-5-5--5-5-5--5-5-5--2-2-2--2-2-2--2-2-2--|

C#|-----------------------|
G#|-----------------------|
E |-----------------------|
B |--3-3-3--3-3-3--3-3-3--|
F#|-3-3-3--3-3-3--3-3-3---|
B |--3-3-3--3-3-3--3-3-3--| (x2)

[Pre-Chorus]
(Both Guitars)
"All the delicate ways, That I deepened our graves..."
C#|--------------------------------------------------------------|
G#|--------------------------------------------------------------|
E |--------------------------------------------------------------|
B |--------------------------------------------------------------|
F#|--------------------------------------------------------------|
B |--5-5-5-5-5-5-5-5-5-5-5-5-7-7-7-3-3-3-3-3-3-3-3-3-3-3-3-7-7-7-|

C#|-----------------------------------------------------------|
G#|-----------------------------------------------------------|
E |-----------------------------------------------------------|
B |-----------------------------------------------------------|
F#|-----------------------------------------------------------|
B |--2-2-2-2-2-2-2-2-2-2-2-2-7-7-7-3-3-3-3-3-3-3-3-3-3-3-3-3--|

[Chorus]
(Guitar 1: Ethan - Lead)
(Listen to song for the Rythem)
"Oh, The pain in your eyes, My regrets have never known.."
C#|-15-15-15-15-------------15-15-15-15----------------------------|
G#|-------------13-13-13-13------------13-13-13-13--10-12-13-12-8--|
E |----------------------------------------------------------------|
B |----------------------------------------------------------------|
F#|----------------------------------------------------------------|
B |----------------------------------------------------------------|

C#|-15-15-15-15-------------15-15-15-15-----------------------------|
G#|-------------13-13-13-13------------13-13-13-13--10-12-13-12-10--|
E |-----------------------------------------------------------------|
B |-----------------------------------------------------------------|
F#|-----------------------------------------------------------------|
B |-----------------------------------------------------------------| (x2)

(Guitar 2) 
(Don - Rythem)
C#|------------------------------------------------------|
G#|------------------------------------------------------|
E |------------------------------------------------------|
B |--7-7-7-7-7-10-10-10-10-10-/14-\-3-3-3-3-3-3-3-3-3-5--|
F#|-7-7-7-7-7-10-10-10-10-10-/14-\-3-3-3-3-3-3-3-3-3-5---|
B |--7-7-7-7-7-10-10-10-10-10-/14-\-3-3-3-3-3-3-3-3-3-5--| (x4)

[Bridge]
(Both Guitars)
(BG Voice)
"Just what do you think you're doing..."
C#|-----------------------------------|
G#|-----------------------------------|
E |-----------------------------------|
B |--2-----5--2-----5--2-----5--2-----|
F#|-2-----3--2-----3--2-----3--2------|
B |--2--------2--------2--------2-----|

(Guitar 1: Ethan - Lead)
(For this measure: ^^ = A gradual 1 step bend and back down)
(For this measure: ^ = 1/2 step bend)
C#|-----------------------------------|
G#|-8p0-7^^-8p0-7^^-8p0-7^^-8p0-10^---|
E |-----------------------------------|
B |-----------------------------------|
F#|-----------------------------------|
B |-----------------------------------| (x2)

C#|------------------------------------------------------------------|
G#|-8-0-8-0-8-0-8-0-10-0-10-0-10-0-10-0-7-0-7-0-7-0-7-0-7-0-7-0------|
E |--------------------------------------------------------------9*^-|
B |------------------------------------------------------------------|
F#|------------------------------------------------------------------|
B |------------------------------------------------------------------|

(For this measure, at the end gradualy bend it to a whole step
 and bring it back down fast. Listen to song to see how it is done)
C#|------------------------------------------------------------------|
G#|-8-0-8-0-8-0-8-0-10-0-10-0-10-0-10-0-7-0-7-0-7-0-7-0--------------|
E |------------------------------------------------------9*^---------|
B |------------------------------------------------------------------|
F#|------------------------------------------------------------------|
B |------------------------------------------------------------------|

(Guitar 2: Don - Rythem)
(The last time through at the end right before the 10 there will
 be a breif pause, then you strum the 10)
C#|-------------------------------------------------------------------|
G#|-------------------------------------------------------------------|
E |-------------------------------------------------------------------|
B |-------------------------------------------------------------10----|
F#|-2-2-2-2-2-2-2-2-2-2-2-2-2-2-2-2-2-2-2-2-2-2-2-2-2-2-2-2-2--10-----|
B |--2-2-2-2-2-2-2-2-2-2-2-2-2-2-2-2-2-2-2-2-2-2-2-2-2-2-2-2-2--10----| (x4)
   . . . . . . . . . . . . . . . . . . . . . . . . . . . . .

[Pre-Chorus]
(Guitar 1 plays this until you hit the first 7 note then both
 guitars kick in and play)
 "All the delicate ways, That I deepened our graves..."
C#|--------------------------------------------------------------|
G#|--------------------------------------------------------------|
E |--------------------------------------------------------------|
B |--------------------------------------------------------------|
F#|--------------------------------------------------------------|
B |--5-5-5-5-5-5-5-5-5-5-5-5-7-7-7-3-3-3-3-3-3-3-3-3-3-3-3-7-7-7-|

C#|-----------------------------------------------------------|
G#|-----------------------------------------------------------|
E |-----------------------------------------------------------|
B |-----------------------------------------------------------|
F#|-----------------------------------------------------------|
B |--2-2-2-2-2-2-2-2-2-2-2-2-7-7-7-3-3-3-3-3-3-3-3-3-3-3-3-3--|

[Chorus]
(Guitar 1: Ethan - Lead)
(Listen to song for the Rythem)
"Oh, The pain in your eyes, My regrets have never known.."
C#|-15-15-15-15-------------15-15-15-15----------------------------|
G#|-------------13-13-13-13------------13-13-13-13--10-12-13-12-8--|
E |----------------------------------------------------------------|
B |----------------------------------------------------------------|
F#|----------------------------------------------------------------|
B |----------------------------------------------------------------|

C#|-15-15-15-15-------------15-15-15-15-----------------------------|
G#|-------------13-13-13-13------------13-13-13-13--10-12-13-12-10--|
E |-----------------------------------------------------------------|
B |-----------------------------------------------------------------|
F#|-----------------------------------------------------------------|
B |-----------------------------------------------------------------| (x2)

(Guitar 2) 
(Don - Rythem)
C#|------------------------------------------------------|
G#|------------------------------------------------------|
E |------------------------------------------------------|
B |--7-7-7-7-7-10-10-10-10-10-/14-\-3-3-3-3-3-3-3-3-3-5--|
F#|-7-7-7-7-7-10-10-10-10-10-/14-\-3-3-3-3-3-3-3-3-3-5---|
B |--7-7-7-7-7-10-10-10-10-10-/14-\-3-3-3-3-3-3-3-3-3-5--| (x4)

[Outro]
(make sure right after you finish the last chorus riff you immediatly hit
 the pinched harmonic; Guitar 1 does the pinched harmonic only)
(Both Guitars)
C#|-------------------|
G#|-------------------|
E |-------------------|
B |--5*v-7-7-7--7-7-7-|
F#|------7-7-7--7-7-7-|
B |------7-7-7--7-7-7-|


************************************

| /  Slide up
| \  Slide down
| p  Pull-off
| .  Staccato

************************************
Suggest correction
comments
print report bad tab
16 comments total. Showing first comments.
0 reply
Tigerwhite_1 10 Nov 12, 2006 01:01 PM

AWSOME TAB!!!! Another Great Job!!!! I loved it, easy to folow. another 5 star tab! I haven't actually played it yet, but i listened to the song while scanning the tabe, i never got lost, and it look 110% correct, :)

KEEP UP THE GREAT JOB!!!

0 reply
Tigerwhite_1 10 Nov 13, 2006 01:57 PM

well, i don't guess its really 110% correct, i found 1 minor flaw, i played this song many time and just now noticed it, but on the intro, there is a faint note that you don't have, and i listened to if a few more times to make sure i was right, but here is the intro ( i hope you don't mind but i just copied your tab for it and added the note)

INTRO
Guitar 1: Ethan - Lead
C#--5------------5-----------5-----------------------|
G#-----5^-3-5-3----5^-3-5-3----5^-3-5-3--------------|
E---------------------------------------5-4/5\4-2-4v-|
B----------------------------------------------------|
F#---------------------------------------------------|
B----------------------------------------------------|

C#--5------------5-----------5------------------------|
G#-----5^-3-5-3----5^-3-5-3----5^-3-5-3---------------|
E---------------------------------------5-4/5\4-2-----|
B-------------------------------------------------5*v-|
F#----------------------------------------------------|
B-----------------------------------------------------|

the missing note whas the 3 after the 5, 5^, 3, 5, listen to the song and i'm sure you will agree with me,

also, a little tip on the way i play it, on the pre-chorus, instead of always going to and playing the 7 on the low B, you can just play
the F# open, its alot easier and quicker, :)

0 reply
Majin Gaara 1,122 Nov 13, 2006 01:59 PM

Actually yea your intro is 100% correct. This tab of mine of one thousand apologies is old and so i have already redone it and that is on my new one so yup.

guest
You may want to rate the tab now too:
select rating
Wanna post a correction for this tab? Suggest correction