Oops, an error
Loading. Please wait.

Tide Began To Rise Acoustic tab

version 2
version 2

Whole song

5,383 views 3 this week
7 commentsread comments
1 2 3 4 5
x 9
add to favorites
×
Save as Personal and add changes to this tab that will be seen only by you. Learn more ›
×
You can save this tab as Personal to edit and correct it or add notes. All changes will be seen only by you. Learn more »
launch autoscroll
font size
0
reset
how to read this tab
guitar tuner
edit
Autoscroll
slow
fast
+/-
esc
set tempo
stop
Artist: Demon Hunter
Song: The Tide Began to Rise (Acoustic)
Tuning: Drop D



Intro:
E|---------0---0h1-----------0---0h1---------------------------------|
B|---3---3-------------3---3-----------1---1h3---3/5---1---1h3---3/5-|
G|-----2-----2-----------2-----2---------0-----0---------0-----0-----| 2x 
D|-------------------------------------------------------------------|
A|-------------------------------------------------------------------|
D|-------------------------------------------------------------------|


Verse (Lead):
E|---------0---0h1-----------0---0h1---------------------------------|
B|---3---3-------------3---3-----------1---1h3---3/5---1---1h3---3/5-|
G|-----2-----2-----------2-----2---------0-----0---------0-----0-----|
D|-------------------------------------------------------------------|
A|-------------------------------------------------------------------|
D|-------------------------------------------------------------------|

Verse (Rythm)
E|----------------------------------|
B|-3-3-3-3-3-3-3-3--1-1-1-1-1-1-1-1-|
G|-2-3-2-2-2-2-2-2--0-0-0-0-0-0-0-0-|
D|-0-0-0-0-0-0-0-0--2-2-2-2-2-2-2-2-|
A|----------------------------------|
D|----------------------------------|


"It's getting so hard.."
E|---------0---0h1-----------0---0h1--------------|
B|---3---3-------------3---3----------------------|
G|-----2-----2-----------2-----2--------------5-3-|
D|--------------------------------------3-2---5-3-|
A|--------------------------------------3-2---3-1-|
D|--------------------------------------3-2-------|


Verse (Lead):
E|---------0---0h1-----------0---0h1---------------------------------|
B|---3---3-------------3---3-----------1---1h3---3/5---1---1h3---3/5-|
G|-----2-----2-----------2-----2---------0-----0---------0-----0-----|
D|-------------------------------------------------------------------|
A|-------------------------------------------------------------------|
D|-------------------------------------------------------------------|

Verse (Rythm)
E|----------------------------------|
B|-3-3-3-3-3-3-3-3--1-1-1-1-1-1-1-1-|
G|-2-3-2-2-2-2-2-2--0-0-0-0-0-0-0-0-|
D|-0-0-0-0-0-0-0-0--2-2-2-2-2-2-2-2-|
A|----------------------------------|
D|----------------------------------|


Pre Chorus:
"So I remember on.."
E|------------------|
B|------------------|
G|---3--------------|
D|---3-----1----/3--|
A|---1-----1----/3--|
D|---------1----/3--|

Chorus:
"I found.."
E|-----------------|         |------------|
B|-----------------|         |------------|
G|-----------------|         |------------|
D|--/5---0---1--/3-| 3x then |--1----/3---| (hold chords 2x as long)
A|--/5---0---1--/3-|         |--1----/3---|
D|--/5---0---1--/3-|         |--1----/3---|


Intro:
E|---------0---0h1-----------0---0h1---------------------------------|
B|---3---3-------------3---3-----------1---1h3---3/5---1---1h3---3/5-|
G|-----2-----2-----------2-----2---------0-----0---------0-----0-----| 2x 
D|-------------------------------------------------------------------|
A|-------------------------------------------------------------------|
D|-------------------------------------------------------------------|

Verse (Lead):
E|---------0---0h1-----------0---0h1---------------------------------|
B|---3---3-------------3---3-----------1---1h3---3/5---1---1h3---3/5-|
G|-----2-----2-----------2-----2---------0-----0---------0-----0-----|
D|-------------------------------------------------------------------|
A|-------------------------------------------------------------------|
D|-------------------------------------------------------------------|

Verse (Rythm)
E|----------------------------------|
B|-3-3-3-3-3-3-3-3--1-1-1-1-1-1-1-1-|
G|-2-3-2-2-2-2-2-2--0-0-0-0-0-0-0-0-|
D|-0-0-0-0-0-0-0-0--2-2-2-2-2-2-2-2-|
A|----------------------------------|
D|----------------------------------|


"I should have known.."
E|---------0---0h1-----------0---0h1--------------|
B|---3---3-------------3---3----------------------|
G|-----2-----2-----------2-----2--------------5-3-|
D|--------------------------------------3-2---5-3-|
A|--------------------------------------3-2---3-1-|
D|--------------------------------------3-2-------|


Pre Chorus:
"So I remember on.."
E|------------------|
B|------------------|
G|---3--------------|
D|---3-----1----/3--|
A|---1-----1----/3--|
D|---------1----/3--|

Chorus:
"I found.."
E|-----------------|         |------------|
B|-----------------|         |------------|
G|-----------------|         |------------|
D|--/5---0---1--/3-| 3x then |--1----/3---| (hold chords 2x as long)
A|--/5---0---1--/3-|         |--1----/3---|
D|--/5---0---1--/3-|         |--1----/3---|


Bridge & Ending (Lead):
"If this is all.."
E|--------------------------------------------------------------------------|
B|--------------------------------------------------------------------------|
G|-7-7-7-7-7-5-3-5-7-5-3-7-7-7-7-7-10-10-10-10-10-12-12-10-7-7-7-7-7-5-3-5-3| 
D|-0-0-0-0-0-0-0-0-0-0-0-0-0-0-0-0-0--0--0--0--0--0--0--0--0-0-0-0-0-0-0-0-0| 
A|--------------------------------------------------------------------------|
D|--------------------------------------------------------------------------|


Bridge & Ending (Rythm):
E|----------------------------|
B|----------------------------|
G|---3------------------------|
D|---3------3------0------1---|
A|---1------3------0------1---|
D|----------3------0------1---|


Amazing song! Enjoy it!..

            
            
Suggest correction
Creating personal tab
Creating personal tab
You can edit any tab online and save it as your Personal.

You can edit, replace or remove any tab part or add personal notes – all changes will be seen only by you.

Personal tabs can be accessed anytime from any device, even offline.
Learn more »
comments
print report bad tab
7 comments total. Showing first comments.
+1 reply
butlerc777 188 Feb 29, 2012 12:55 PM

The main riff isn't quite right...

Instead of this:

e|--------0------1-
b|--3---3------3---
g|----2------2-----

...it should be this:

e|--------0----0h1---
b|--3---3------------
g|----2------2-------

That 0h1 is a hammer on. If you listen to the acoustic version from the Triptych, that's what it sounds like.

0 reply
knoxvi11e 41 Mar 01, 2012 12:59 AM

I just not agree with this but I can't prove my opinion as well as you can't..

When I listen to the song, the hammer on sounds both in two parts of the main riff.. Why you correct only first part?

And if you not convinced in this tab, try to find how this song is played on YouTube..

+1 reply
butlerc777 188 Mar 01, 2012 02:13 PM

I only posted the first part because I'm lazy. lol. It doesn't match up to the song when I play it...if you think it does, then I guess we're at an impasse.

guest
You may want to rate the tab now too:
select rating
Wanna post a correction for this tab? Suggest correction