Oops, an error
Loading. Please wait.

Undying tab

version 1
version 1

Whole song

Interactive

15,181 views 1 this week
23 commentsread comments
1 2 3 4 5
x 15
add to favorites
×
Save as Personal and add changes to this tab that will be seen only by you. Learn more ›
×
You can save this tab as Personal to edit and correct it or add notes. All changes will be seen only by you. Learn more »
launch autoscroll
font size
0
reset
how to read this tab
guitar tuner
edit
Autoscroll
slow
fast
+/-
esc
set tempo
stop
Guitar Tunning: Drop B (B F# B E G# C#)
Bass Tunning: Drop B (B F# B E)

[Intro]
(Use Wah Wah Pressed up)
(0:00)
Ethan - Lead
G#|-------------------------------------------------------------------|
C#|-------------------------------------------------------------------|
E |-------------------------------------------------------------------|
B |-------------------------------------------------------------------|
F#|-------3/6-----5/8---------8-4---------3-5-----3-5-----------------|
B |-1-0-0-----0-0-----0-0-0-0-----0-1-0-0-----0-0-----0-0-0-0-0-3-2-0-| (x2)

(0:12)
(Both Guitars:)
G#|-------------------------------------------------------------------|
C#|-------------------------------------------------------------------|
E |-------5-8-----7-10--------106---------5-7-----5-7-----------------|
B |-------x-x-----x-x---------x-x---------x-x-----x-x-----------------|
F#|-1-0-0-3/6-----5/8---------8-4-0-1-----3-5-----3-5-0-0-0-0-0-3-2-0-|
B |-1-0-0-----0-0-----0000000-----0-1--0-0-----0-0----0-0-0-0-0-3-2-0-| (x2)
               . .     .......         . .     . .

(Jon - Bass)
E |-------------------------------------------------------------------|
B |-------------------------------------------------------------------|
F#|-------3/6-----5/8---------8-4-0-------3-5-----3-5-----------------|
B |-1-0-0-----0-0-----0000000-------1-0-0-----0-0-----0-0-0-0-0-3-2-0-| (x2)

[Pre-Verse]
(0:24)
(Don - Rythem:)
C#|-----------------------------------------------------------------|
G#|-----------------------------------------------------------------|
E |-----------------------------------------------------------------|
B |-----------------------------------------------------------------|
F#|-3-----3-----3-----3-----5---5---3-----3-----3-----5---5---1b----|
B |---0-0---0-0---0-0---0-0---0---0---0-0---0-0---0-0---0---0-------|

(Ethan - Lead:)
C#|-----------------------------------------------------------------|
G#|-----------------------------------------------------------------|
E |-----------------------------------------------------------------|
B |-----------------------------------------------------------------|
F#|-----------------------------------------------------------1*~---|
B |-----------------------------------------------------------------|

[Verse 1]
(0:32)
Don - Rythem
"Ever since the day that I was made..."
C#|--------------------------------------------------------------------|
G#|--------------------------------------------------------------------|
E |--------------------------------------------------------------------|
B |--------------------------------------------------------------------|
F#|--3-----3-----3-----3-----5---5---3-----3-----3-----5---5---1b------|
B |----0-0---0-0---0-0---0-0---0---0---0-0---0-0---0-0---0---0----0----|(x2)

Jon - Bass
(Let open notes ring; listen to song for the exact rythem)
E |-------------------------------------------------------------------|
B |-------------------------------------------------------------------|
F#|-------------------------------------------------------------------|
B |-0-----------------------0-8-------------5---------7---------------|(x2)

(0:45)
(Both Guitars:)
"Nobody ever made a force that took a beating like me..."
C#|--------------------------------------------------------------------|
G#|--------------------------------------------------------------------|
E |--------------------------------------------------------------------|
B |--------------------------------------------------------------------|
F#|--3-----3-----3-----3-----5---5---3-----3-----3-----5---5---1b------|
B |----0-0---0-0---0-0---0-0---0---0---0-0---0-0---0-0---0---0----0----|(x2)
        . .   . .   . .   . .   .   .   . .   . .   . .   .   .    .

Jon - Bass
E |-------------------------------------------------------------------|
B |-------------------------------------------------------------------|
F#|-------------------------------------------------------------------|
B |-0-0-0-0-0-0-0-0-0-0-0-0-0-8-8-8-8-8-8-8-8-8-8-5-5-5-5-7-7-7-7-7-7-| (x2)

[Pre-Chorus]
(0:57)
"When this season ends..."
Don - Rythem
G#|-----------------------------------------------------------------|
C#|-----------------------------------------------------------------|
E |-5--5--5--5--5--5--5--5--5--5--8--7--7--7--7--7--7--7--7--7--7--7|
B |-x--x--x--x--x--x--x--x--x--x--x--x--x--x--x--x--x--x--x--x--x--x|
F#|-3--3--3--3--3--3--3--3--3--3--6--5--5--5--5--5--5--5--5--5--5--5|
B |-----------------------------------------------------------------|

Ethan - Lead
G#|-14----14----14----14----14----14----14----14----14----14----14--|
C#|----15----15----15----15----15----15----15----15----15----15---15|
E |-----------------------------------------------------------------|
B |-----------------------------------------------------------------|
F#|-----------------------------------------------------------------|
B |-----------------------------------------------------------------|

[Chorus]
(I discovered it seems that they have both guitarists, and a overdubbed
guitar for the chorus. Here are all the parts:
(1:11)
"Heartbreak, And blinding lights will guide our way..."
Ethan - Lead
G#|------------------------------------------------|
C#|------------------------------------------------|
E |----------------5-5-5-5-5-5-5-8-7-7-7-7-7-7-7-7-|
B |-3-3-3-1--------x-x-x-x-x-x-x-x-x-x-x-x-x-x-x-x-|
F#|-3-3-3-1--------3-3-3-3-3-3-3-6-5-5-5-5-5-5-5-5-|
B |-3-3-3-1----------------------------------------| (x4)

Don - Rythem
G#|----------------------------------------------|
C#|----------------------------------------------|
E |----------------------------------------------|
B |-3-3-3-1--------6-6-6-6-6-6-6-6-8-8-8-8-8-8-8-|
F#|-3-3-3-1--------6-6-6-6-6-6-6-6-8-8-8-8-8-8-8-|
B |-3-3-3-1--------6-6-6-6-6-6-6-6-8-8-8-8-8-8-8-| (x4)

Overdub Guitar
(This guitar is quiet but if you listen closely you can hear it)
G#|----------------------------------------------------|
C#|----------------------------------------------------|
E |-13-13-13-12----------------------------------------|
B |-x--x--x--x---------6-6-6-6-6-6-6-6-8-8-8-8-8-8-8-8-|
F#|-11-11-11-10--------6-6-6-6-6-6-6-6-8-8-8-8-8-8-8-8-|
B |--------------------6-6-6-6-6-6-6-6-8-8-8-8-8-8-8-8-| (x4)

Jon - Bass
E |------------------------------------------------|
B |------------------------------------------------|
F#|------------------------------------------------|
B |-3-3-3-1--------6-6-6-6-6-6-6-6-8-8-8-8-8-8-8-8-| (x4)

[Pre-Verse]
(1:26)
Both Guitars:
G#|-------------------------------------------------------------------|
C#|-------------------------------------------------------------------|
E |-------5-8-----7-10--------106---------5-7-----5-7-----------------|
B |-------x-x-----x-x---------x-x---------x-x-----x-x-----------------|
F#|-1-0-0-3/6-----5/8---------8-4-0-1-----3-5-----3-5-0-0-0-0-0-3-2-0-|
B |-1-0-0-----0-0-----0000000-----0-1-0-0-----0-0-----0-0-0-0-0-3-2-0-|
               . .     .......         . .     . .
Jon - Bass
E |-------------------------------------------------------------------|
B |-------------------------------------------------------------------|
F#|-------3/6-----5/8---------8-4---------3-5-----3-5-----------------|
B |-1-0-0-----0-0-----0000000-----0-1-0-0-----0-0-----0-0-0-0-0-3-2-0-|

(1:32)
Don - Rythem
C#|--------------------------------------------------------------------|
G#|--------------------------------------------------------------------|
E |--------------------------------------------------------------------|
B |--------------------------------------------------------------------|
F#|--3-----3-----3-----3-----5---5---3-----3-----3-----5---5---1b------|
B |----0-0---0-0---0-0---0-0---0---0---0-0---0-0---0-0---0---0----0----|

Ethan - Lead
C#|-------------------------------------------------------------------|
G#|-------------------------------------------------------------------|
E |-------------------------------------------------------------------|
B |------------------------------------------------------------1*~----|
F#|---------------------------------------------------------1*~-------|
B |-------------------------------------------------------------------|

[Verse 2]
(1:39)
Don - Rythem:
"Tearing through these days I find..."
C#|--------------------------------------------------------------------|
G#|--------------------------------------------------------------------|
E |--------------------------------------------------------------------|
B |--------------------------------------------------------------------|
F#|--3-----3-----3-----3-----5---5---3-----3-----3-----5---5---1b------|
B |----0-0---0-0---0-0---0-0---0---0---0-0---0-0---0-0---0---0----0----|

Jon - Bass
(listen to song for the exact rythem)
E |-------------------------------------------------------------------|
B |-------------------------------------------------------------------|
F#|-------------------------------------------------------------------|
B |-0-----------------------0-8-------------5---------7---------------|

(1:45)
Both Guitars:
"No one can take away the blood that covers over my fall..."
C#|--------------------------------------------------------------------|
G#|--------------------------------------------------------------------|
E |--------------------------------------------------------------------|
B |--------------------------------------------------------------------|
F#|--3-----3-----3-----3-----5---5---3-----3-----3-----5---5---1b------|
B |----0-0---0-0---0-0---0-0---0---0---0-0---0-0---0-0---0---0----0----|(x2)
        . .   . .   . .   . .   .   .   . .   . .   . .   .   .    .

Jon - Bass
E |-------------------------------------------------------------------|
B |-------------------------------------------------------------------|
F#|-------------------------------------------------------------------|
B |-0-0-0-0-0-0-0-0-0-0-0-0-0-8-8-8-8-8-8-8-8-8-8-5-5-5-5-7-7-7-7-7-7-| (x2)

(1:58)
"When this season ends..."
"When this season ends..."
Don - Rythem
G#|-----------------------------------------------------------------|
C#|-----------------------------------------------------------------|
E |-5--5--5--5--5--5--5--5--5--5--8--7--7--7--7--7--7--7--7--7--7--7|
B |-x--x--x--x--x--x--x--x--x--x--x--x--x--x--x--x--x--x--x--x--x--x|
F#|-3--3--3--3--3--3--3--3--3--3--6--5--5--5--5--5--5--5--5--5--5--5|
B |-----------------------------------------------------------------|

Ethan - Lead
G#|-14----14----14----14----14----14----14----14----14----14----14--|
C#|----15----15----15----15----15----15----15----15----15----15---15|
E |-----------------------------------------------------------------|
B |-----------------------------------------------------------------|
F#|-----------------------------------------------------------------|
B |-----------------------------------------------------------------|

(2:01)
"Heartbreak, And blinding lights will guide our way..."
G#|------------------------------------------------|
C#|------------------------------------------------|
E |----------------5-5-5-5-5-5-5-8-7-7-7-7-7-7-7-7-|
B |-3-3-3-1--------x-x-x-x-x-x-x-x-x-x-x-x-x-x-x-x-|
F#|-3-3-3-1--------3-3-3-3-3-3-3-6-5-5-5-5-5-5-5-5-|
B |-3-3-3-1----------------------------------------| (x4)

Don - Rythem
G#|----------------------------------------------|
C#|----------------------------------------------|
E |----------------------------------------------|
B |-3-3-3-1--------6-6-6-6-6-6-6-6-8-8-8-8-8-8-8-|
F#|-3-3-3-1--------6-6-6-6-6-6-6-6-8-8-8-8-8-8-8-|
B |-3-3-3-1--------6-6-6-6-6-6-6-6-8-8-8-8-8-8-8-| (x4)

Overdub Guitar
(This guitar is quiet but if you listen closely you can hear it)
G#|----------------------------------------------------|
C#|----------------------------------------------------|
E |-13-13-13-12----------------------------------------|
B |-x--x--x--x---------6-6-6-6-6-6-6-6-8-8-8-8-8-8-8-8-|
F#|-11-11-11-10--------6-6-6-6-6-6-6-6-8-8-8-8-8-8-8-8-|
B |--------------------6-6-6-6-6-6-6-6-8-8-8-8-8-8-8-8-| (x4)

Jon - Bass
E |------------------------------------------------|
B |------------------------------------------------|
F#|------------------------------------------------|
B |-3-3-3-1--------6-6-6-6-6-6-6-6-8-8-8-8-8-8-8-8-| (x4)


[Bridge]
(2:27)
Both Guitars:
(Let ring through the whole measure)
C#|------------------------------------------------------|
G#|------------------------------------------------------|
E |------------------------------------------------------|
B |-0----------------------------------------------------|
F#|-0----------------------------------------------------|
B |-0----------------------------------------------------|

(2:31)
Don - Rythem
(When you go to play this riff over play these 2 riffs displayed below
not just the small 11 noted riff)
G#|-----------------------------------------------------------------|
C#|-----------------------------------------------------------------|
E |-----------------------------------------------------------------|
B |-----------------------------------------------------------------|
F#|12-0-0-12-0-0-12-0-0-12-0-0-15-0-15-0-13-0-0-13-0-0-13-0-0-13-0-0|
B |-----------------------------------------------------------------|

C#|------------|
G#|------------|
E |------------|
B |------------|
F#|-11-0-11-0--|
B |------------| (x4)

(2:43)
Ethan - Lead
(The 3rd in on the above lead this below riff starts kicking in)
(Normaly the open notes would be wrighten like 00000-0-00 ect. but I
zoomed this riff in and thought it would be eaiser to show you)
"Were the ones who still remain when all is laid to waist..."
C#|------------------------------------------------|
G#|------------------------------------------------|
E |------------------------------------------------|
B |----------------------------------------1/6-1/6-|
F#|-0-0-0-0----0---0-0--0-0--0-0-0-0--0-0--1/6-1/6-|
B |-0-0-0-0----0---0-0--0-0--0-0-0-0--0-0--1/6-1/6-| (x4)
     . . . .    .   . .  . .  . . . .  . .

Jon - Bass
E |------------------------------------------------|
B |------------------------------------------------|
F#|------------------------------------------------|
B |-0-0-0-0----0---0-0--0-0--0-0-0-0--0-0--1/6-1/6-| (x4)

(2:55)
Both Guitars:
"We are the ones..."
C#|------------------------------------------------|
G#|------------------------------------------------|
E |------------------------------------------------|
B |----------------------------------------1/6-1/6-|
F#|-0-0-0-0----0---0-0--0-0--0-0-0-0--0-0--1/6-1/6-|
B |-0-0-0-0----0---0-0--0-0--0-0-0-0--0-0--1/6-1/6-| (x4)
     . . . .    .   . .  . .  . . . .  . .

Jon - Bass
E |------------------------------------------------|
B |------------------------------------------------|
F#|------------------------------------------------|
B |-0-0-0-0----0---0-0--0-0--0-0-0-0--0-0--1/6-1/6-| (x4)

(3:08)
Quietly you have 2 haprsichords in the background  playing this:
Harpsichord Rythem
"When This season ends..."
C#|-2---2---2---2---2---2---2---2---2---2---|
G#|---3---3---3---3---3---3---3---3---3---3-|
E |-----------------------------------------|
B |-----------------------------------------|
F#|-----------------------------------------|
B |-----------------------------------------| (x2)

Harpsichord Lead
C#|-----------------------------------------|
G#|----------------------4-3----------------|
E |-5------------------5--------------------|
B |-----------------------------------------|
F#|-----------------------------------------|
B |-----------------------------------------| (x2)

(3:12)
(The second the time throught the above riff play this)
(This Is a guitar with wah wah effect pressed up down then up,
hit the note then let it ring and slowly press the wah wah up)
Ethan - Lead
"Un-dy-ing..."
      "One final..."
C#|---|
G#|---|
E |---|
B |---|
F#|-5-|
B |---|

3:16
"Heartbeak, And blinding lights will guide our way
PLAY CHORUS

[Outro]
(3:40)
(Both Guitars)
                                                            "Un-dy-ing..."
G#|-------------------------------------------------------------------|
C#|-------------------------------------------------------------------|
E |-------5-8-----7-10--------106---------5-7-----5-7-----------------|
B |-------x-x-----x-x---------x-x---------x-x-----x-x-----------------|
F#|-1-0-0-3/6-----5/8---------8-4-0-1-----3-5-----3-5-0-0-0-0-0-3-2-0-|
B |-1-0-0-----0-0-----0000000-----0-1--0-0-----0-0----0-0-0-0-0-3-2-0-|
               . .     .......         . .     . .
Jon - Bass
(Just Play this 3x(three times) after the last chorus)
E |-------------------------------------------------------------------|
B |-------------------------------------------------------------------|
F#|-------3/6-----5/8---------8-4---------3-5-----3-5-----------------|
B |-1-0-0-----0-0-----0000000-----0-1--0-0-----0-0----0-0-0-0-0-3-2-0-| (x3)

(3:47)
(Both Guitars)
                                                                "Yea!..."
G#|-------------------------------------------------------------------|
C#|-------------------------------------------------------------------|
E |-------5-8-----7-10--------106---5-----5-7-----5-7-----------------|
B |-------x-x-----x-x---------x-x---x-----x-x-----x-x-----------------|
F#|-1-0-0-3/6-----5/8---------8-4-0-3-----3-5-----3-5-0-0-0-0-0-3-2-0-|
B |-1-0-0-----0-0-----0000000-----0---0-0-----0-0-----0-0-0-0-0-3-2-0-|
               . .     .......         . .     . .

(3:54)
(Strum the chords fast, listen to song for the speed)
Ethan - Lead
G#|----------------------------------------------------------------------|
C#|-15-15-15-15-15-15-15-15-15-15-15-15-15-15-15-15-16-16-16-16-16-16-16-|
E |-x--x--x--x--x--x--x--x--x--x--x--x--x--x--x--x--x--x--x--x--x--x--x--|
B |-12-12-12-12-12-12-12-12-12-12-12-12-12-12-12-12-13-13-13-13-13-13-13-|
F#|----------------------------------------------------------------------|
B |----------------------------------------------------------------------|

Ethan - Lead
G#|----------------------------------------------------------------------|
C#|-16-16-16-16-16-16-16-16-16-13-13-13-13-13-13-13-13-13-13-13-13-13-13-|
E |-x--x--x--x--x--x--x--x--x--x--x--x--x--x--x--x--x--x--x--x--x--x--x--|
B |-13-13-13-13-13-13-13-13-13-10-10-10-10-10-10-10-10-10-10-10-10-10-10-|
F#|----------------------------------------------------------------------|
B |----------------------------------------------------------------------|

Ethan - Lead
G#|-------------------------------------------------------|
C#|-13-13-16-16-16-16-16-16-16-16-16-16-16-16-16-16-16-16-|
E |-x--x--x--x--x--x--x--x--x--x--x--x--x--x--x--x--x--x--|
B |-10-10-13-13-13-13-13-13-13-13-13-13-13-13-13-13-13-13-|
F#|-------------------------------------------------------|
B |-------------------------------------------------------|

Don - Rythem
G#|-------------------------------------------------------------------|
C#|-------------------------------------------------------------------|
E |-------5-8-----7-10--------106---------5-7-----5-7-----------------|
B |-------x-x-----x-x---------x-x---------x-x-----x-x-----------------|
F#|-1-0-0-3/6-----5/8---------8-4-0-1-----3-5-----3-5-0-0-0-0-0-3-2-0-|
B |-1-0-0-----0-0-----0000000-----0-1-0-0-----0-0-----0-0-0-0-0-3-2-0-|

(4:00)
Ethan - Lead
G#|--------------------------------------------------------------------|
C#|--------------------------------------------------------------------|
E |--------------------------------------------------------------------|
B |-13-0-0-0-0-0-10-0-13-0-0-0-0-0-12-0-15-0-0-0-0-0-0-0-0-15-0-11-0-0-|
F#|--------------------------------------------------------------------|
B |--------------------------------------------------------------------|

Ethan - Lead
G#|------------------------------------------|
C#|------------------------------------------|
E |------------------------------------------|
B |-0-12-0-0-0-0-0-10-0-12-0-0-0-0-0-10-0-12-|
F#|------------------------------------------|
B |------------------------------------------|

Don - Rythem
G#|-----------------------------------------------------|
C#|-----------------------------------------------------|
E |-------5-8-----7-10--------106---------5-7-----5-7---|
B |-------x-x-----x-x---------x-x---------x-x-----x-x---|
F#|-1-0-0-3/6-----5/8---------8-4-0-1-----3-5-----3-5---|
B |-1-0-0-----0-0-----0000000-----0-1--0-0-----0-0------|
               . .     .......          . .     . .

Jon - Bass
E |----------------------------------------------------|
B |----------------------------------------------------|
F#|-------3/6-----5/8---------8-4---------3-5-----3-5--|
B |-1-0-0-----0-0-----0000000-----0-1-0-0-----0-0------|

(4:05)
(Fade out with these riffs)
Harpsichord Rythem
C#|-2---2---2---2---2---2---2---2---2---2---|
G#|---3---3---3---3---3---3---3---3---3---3-|
E |-----------------------------------------|
B |-----------------------------------------|
F#|-----------------------------------------|
B |-----------------------------------------| (x4)

Harpsichord Lead
C#|-----------------------------------------|
G#|----------------------4-3----------------|
E |-5------------------5--------------------|
B |-----------------------------------------|
F#|-----------------------------------------|
B |-----------------------------------------| (x4)



************************************

| /  Slide up
| x  Dead note
| .  Staccato
| b  Bend

************************************

            
            
Suggest correction
Creating personal tab
Creating personal tab
You can edit any tab online and save it as your Personal.

You can edit, replace or remove any tab part or add personal notes – all changes will be seen only by you.

Personal tabs can be accessed anytime from any device, even offline.
Learn more »
comments
print report bad tab
23 comments total. Showing first comments.
0 reply
CoolNamesTaken 20 May 12, 2006 06:19 PM

very good job man, very well done i applaude this tab.

0 reply
ToHellWithEMO 10 May 13, 2006 07:26 PM

good job dude. i agree this song is really hard to figure out. i did i just never bother to tab out nething cuz im too lazy lol but good job.

0 reply
Version 41 10 May 15, 2006 08:53 PM

Dude your a genius. I love this song. *****. Demon Hunter rocks]

guest
You may want to rate the tab now too:
select rating
Wanna post a correction for this tab? Suggest correction