Oops, an error
Loading. Please wait.
1,822 views 1 this week
no commentswrite comment
1 2 3 4 5
1 last vote to show rating
add to favorites
launch autoscroll
font size
0
reset
how to read this tab
guitar tuner
Autoscroll
slow
fast
+/-
esc
set tempo
stop
Help us to improve Ultimate-Guitar.com Take our survey!
×
Difficulty
novice
Intro:
             C                        C
e|------------0-----------|------------0-----------|
B|----------------1-------|----------------1-------|
G|--------0-----------0---|--------3-----------0---|
D|----2-------------------|----2-------------------|
A|3-----------------------|3-----------------------|
E|------------------------|------------------------|
              E                        E
e|------------0-----------|------------0-----------|
B|----------------0-------|----------------0-------|
G|--------0-----------0---|--------0-----------0---|
D|----2-------------------|----2-------------------|
A|2-----------------------|2-----------------------|
E|------------------------|------------------------|
              AM                        AM
e|------------0-----------|------------0-----------|
B|----------------1-------|----------------1-------|
G|--------2-----------2---|--------2-----------2---|
D|----2-------------------|----2-------------------|
A|0-----------------------|0-----------------------|
E|------------------------|------------------------|
              G                        G
e|------------3-----------|3-----------1-----------|
B|--------3-------3-------|----3-------------------|
G|----0---------------0---|--------0---------------|
D|0-----------------------|------------------0-----|
A|------------------------|----------------3---(3)-|
E|------------------------|------------------------|  



Verse:
              C                        C
e|------------0-----------|------------0-----------|
B|----------------1-------|----------------1-------|
G|--------0-----------0---|--------3-----------0---|
D|----2-------------------|----2-------------------|
A|3-----------------------|3-----------------------|
E|------------------------|------------------------|
  Som-na iiin.... 

              E                        E
e|------------0-----------|------------0-----------|
B|----------------0-------|----------------0-------|
G|--------0-----------0---|--------0-----------0---|
D|----2-------------------|----2-------------------|
A|2-----------------------|2-----------------------|
E|------------------------|------------------------|
  Natten är nääääära....

              AM                        AM
e|------------0-----------|------------0-----------|
B|----------------1-------|----------------1-------|
G|--------2-----------2---|--------2-----------2---|
D|----2-------------------|----2-------------------|
A|0-----------------------|0-----------------------|
E|------------------------|------------------------|
      Jag kan vakta ändan din
              G                        G
e|------------3-----------|3-----------1-----------|
B|--------3-------3-------|----3-------------------|
G|----0---------------0---|--------0---------------|
D|0-----------------------|------------------0-----|
A|------------------------|----------------3---(3)-|
E|------------------------|------------------------|
           jag looovar att vaka över dig!           

              C                        C
e|------------0-----------|------------0-----------|
B|----------------1-------|----------------1-------|
G|--------0-----------0---|--------3-----------0---|
D|----2-------------------|----2-------------------|
A|3-----------------------|3-----------------------|
E|------------------------|------------------------|
  Här blir jag kvar.... 

              E                        E
e|------------0-----------|------------0-----------|
B|----------------0-------|----------------0-------|
G|--------0-----------0---|--------0-----------0---|
D|----2-------------------|----2-------------------|
A|2-----------------------|2-----------------------|
E|------------------------|------------------------|
  Här finns ingenting som jagar.

              AM                        AM
e|------------0-----------|------------0-----------|
B|----------------1-------|----------------1-------|
G|--------2-----------2---|--------2-----------2---|
D|----2-------------------|----2-------------------|
A|0-----------------------|0-----------------------|
E|------------------------|------------------------|
  Här finns ingen som styr.                     
   
              G                        G
e|------------3-----------|3-----------1-----------|
B|--------3-------3-------|----3-------------------|
G|----0---------------0---|--------0---------------|
D|0-----------------------|------------------0-----|
A|------------------------|----------------3---(3)-|
E|------------------------|------------------------|
    I Drömmen gör du             som du behagar 

              C                        C
e|------------0-----------|------------0-----------|
B|----------------1-------|----------------1-------|
G|--------0-----------0---|--------3-----------0---|
D|----2-------------------|----2-------------------|
A|3-----------------------|3-----------------------|
E|------------------------|------------------------|
                                Här kan du göra

              E                        E
e|------------0-----------|------------0-----------|
B|----------------0-------|----------------0-------|
G|--------0-----------0---|--------0-----------0---|
D|----2-------------------|----2-------------------|
A|2-----------------------|2-----------------------|
E|------------------------|------------------------|
       Allting själv          men inte va ensam

              AM                        AM
e|------------0-----------|------------0-----------|
B|----------------1-------|----------------1-------|
G|--------2-----------2---|--------2-----------2---|
D|----2-------------------|----2-------------------|
A|0-----------------------|0-----------------------|
E|------------------------|------------------------|
                                    För jag

              G                        G
e|------------3-----------|3-----------1-----------|
B|--------3-------3-------|----3-------------------|
G|----0---------------0---|--------0---------------|
D|0-----------------------|------------------0-----|
A|------------------------|----------------3---(3)-|
E|------------------------|------------------------|
      sitter alltid              kvar brevid.        

              C                        C
e|------------0-----------|------------0-----------|
B|----------------1-------|----------------1-------|
G|--------0-----------0---|--------3-----------0---|
D|----2-------------------|----2-------------------|
A|3-----------------------|3-----------------------|
E|------------------------|------------------------|
                              Här kan du bara va

              E                        E
e|------------0-----------|------------0-----------|
B|----------------0-------|----------------0-------|
G|--------0-----------0---|--------0-----------0---|
D|----2-------------------|----2-------------------|
A|2-----------------------|2-----------------------|
E|------------------------|------------------------|
        Som helst.                  Du är

              AM                        AM
e|------------0-----------|------------0-----------|
B|----------------1-------|----------------1-------|
G|--------2-----------2---|--------2-----------2---|
D|----2-------------------|----2-------------------|
A|0-----------------------|0-----------------------|
E|------------------------|------------------------|
     alltid starkast                  
   
              G                        G
e|------------3-----------|3-----------1-----------|
B|--------3-------3-------|----3-------------------|
G|----0---------------0---|--------0---------------|
D|0-----------------------|------------------0-----|
A|------------------------|----------------3---(3)-|
E|------------------------|------------------------|
      Och jag alltid          lika stark som du..



X2
             C                        C
e|------------0-----------|------------0-----------|
B|----------------1-------|----------------1-------|
G|--------0-----------0---|--------3-----------0---|
D|----2-------------------|----2-------------------|
A|3-----------------------|3-----------------------|
E|------------------------|------------------------|

              E                        E
e|------------0-----------|------------0-----------|
B|----------------0-------|----------------0-------|
G|--------0-----------0---|--------0-----------0---|
D|----2-------------------|----2-------------------|
A|2-----------------------|2-----------------------|
E|------------------------|------------------------|

              AM                        AM
e|------------0-----------|------------0-----------|
B|----------------1-------|----------------1-------|
G|--------2-----------2---|--------2-----------2---|
D|----2-------------------|----2-------------------|
A|0-----------------------|0-----------------------|
E|------------------------|------------------------|

              G                        G
e|------------3-----------|3-----------1-----------|
B|--------3-------3-------|----3-------------------|
G|----0---------------0---|--------0---------------|
D|0-----------------------|------------------0-----|
A|------------------------|----------------3---(3)-|
E|------------------------|------------------------| 


// Werthy
Suggest correction
Give kudos to tab author, rate the tab!
1 2 3 4 5
comments
print report bad tab
guest
You may want to rate the tab now too:
select rating
Wanna post a correction for this tab? Suggest correction