Oops, an error
Loading. Please wait.

Program Tvog Kompjutera Chords

16 views 1 this week
no commentswrite comment
1 2 3 4 5
3 more votes to show rating
add to favorites
launch autoscroll
font size
0
reset
transpose
0
reset
display chords
guitar tuner
Autoscroll
slow
fast
+/-
esc
set tempo
stop
Help us to improve Ultimate-Guitar.com Take our survey!
×
Author
Difficulty
Capo
novice
3rd fret
CAPO 3

[Intro]

    Am         F       G        Am
e|-----------------------------------------------|
B|-----------------------------------------------|
G|-----------------------------------------------|   x2
D|-~7------~7------~7----------10-10-9-7----~7---|  
A|-----7-10----7-10----7-10-7-------------10-----|
E|-----------------------------------------------|


[Verse 1]

Am    Dm               G       Am
Ti me slijediš, bježim i gubim dah
     Dm         G        Am     Dm G Am
Neka jaka želja upija mi strah
     Dm          G        F   G
Koji korak još i kraj ulice

Am    Dm         G      Am
Srce divlje lupa, želim te
      Dm          G          Am    Dm G Am
Ja ti brišem suze vodim te u stan
      Dm          G          F   G
Dok polako pogled moj spušta se


[Chorus]

C G      Am
Ouo je-i-jej
     G      F     C
Sada pratim ritam tvoj
  G      Am
Ouo je-i-jej
    G      F    C
Ovu pjesmu novi broj
  G       Am
Ouo je-i-jej
    G     F      C
Ako želiš bit ću ja
  G       Am
Ouo je-i-jej 
        G            F    G
Program tvog kompjutera


[Intro Riff]

    Am         F       G        Am
e|-----------------------------------------------|
B|-----------------------------------------------|
G|-----------------------------------------------|   x2
D|-~7------~7------~7----------10-10-9-7----~7---|  
A|-----7-10----7-10----7-10-7-------------10-----|
E|-----------------------------------------------|


[Verse 2]

Am       Dm              G          Am
Mrak je, tražim svjetlo, ti spremaš ključ
       Dm        G             Am   Dm G Am
U prazninu tonem tvoj je dodir vruć
       Dm         G         F   G
Dok mi diraš kosu ja gledam te


[Chorus]

C G      Am
Ouo je-i-jej
     G      F     C
Sada pratim ritam tvoj
  G      Am
Ouo je-i-jej
    G      F    C
Ovu pjesmu novi broj
  G       Am
Ouo je-i-jej
    G     F      C
Ako želiš bit ću ja
  G       Am
Ouo je-i-jej 
        G            F    G
Program tvog kompjutera


[Instrumental]

    Am         F       G        Am
e|-----------------------------------------------|
B|-----------------------------------------------|
G|-----------------------------------------------|   x2
D|-~7------~7------~7----------10-10-9-7----~7---|  
A|-----7-10----7-10----7-10-7-------------10-----|
E|-----------------------------------------------|

Am Dm G Am x2


[Chorus]

C G      Am
Ouo je-i-jej
     G      F     C
Sada pratim ritam tvoj
  G      Am
Ouo je-i-jej
    G      F    C
Ovu pjesmu novi broj
  G       Am
Ouo je-i-jej
    G     F      C
Ako želiš bit ću ja
  G       Am
Ouo je-i-jej 
        G            F    G
Program tvog kompjutera

C G      Am
Ouo je-i-jej
     G      F     C
Sada pratim ritam tvoj
  G      Am
Ouo je-i-jej
    G      F    C
Ovu pjesmu novi broj
  G       Am
Ouo je-i-jej
    G     F      C
Ako želiš bit ću ja
  G       Am
Ouo je-i-jej 
        G            F    G
Program tvog kompjutera


[Outro]

C G Am G F x2


***********************************

| ~   Vibrato

***********************************
Suggest correction
Give kudos to tab author, rate the tab!
1 2 3 4 5
comments
print report bad tab
guest
You may want to rate the tab now too:
select rating
Wanna post a correction for this tab? Suggest correction