Oops, an error
Loading. Please wait.

Dimples tab

229 views 42 this week
6 commentsread comments
1 2 3 4 5
3 more votes to show rating
add to favorites
×
Save as Personal and add changes to this tab that will be seen only by you. Learn more ›
×
You can save this tab as Personal to edit and correct it or add notes. All changes will be seen only by you. Learn more »
launch autoscroll
font size
0
reset
how to read this tab
guitar tuner
edit
Autoscroll
slow
fast
+/-
esc
set tempo
stop
***Auto-scroll version available below***

Open D Tuning (DADF#AD)
Recommended Tempo: 120 bpm
Time Signature: 4/4


   [Part A]
      1 + 2 + 3 + 4+   1 + 2 + 3 + 4 +   1 + 2 + 3 + 4 +   1 + 2 + 3 + 4 +
D ||--4h5-4p0-----0--|---2p0---4p0-----|-------0-------0-|-------0-------0--||
A ||----------0h2----|-------0-----0---|-----0-------0---|-----0-------0----||
F#||*----------------|---------------0-|---5-------3-----|---1-------1-----*|| x2
D ||*----------------|-0---------------|-5-------4-------|-2-------2-------*||
A ||-----------------|-----------------|-----------------|------------------||
D ||--0--------------|-----------------|-----------------|------------------||

   [Part B]
      1 +  2  + 3 +  4  +   1 +  2  + 3 +  4  +   1 + 2 + 3 + 4 +   1 + 2 + 3 + 4 +
D ||--------------------0-|-------------------0-|---------------0-|------------------|
A ||----------0-----------|---------0-----------|-------4---------|-------2-------0--|
F#||*------10--------10---|------10--------10---|-----3-------3---|-----3-------3----|
D ||*---11--------11------|---11--------11------|---0-------0-----|---0-------0------|
A ||--0---------0---------|-0---------0---------|-----------------|------------------|
D ||----------------------|---------------------|-5-------5-------|-5-------5--------|


    1 + 2 + 3 + 4 +   1 + 2 + 3 + 4 +   1 + 2 + 3 + 4 +   1 + 2 + 3 + 4 +   
D |-----------------|-----------------|-----------------|------------------||
A |-----------------|-----------------|-----------------|------------------||
F#|-------1-------3-|-------3-------0-|-------1-------3-|-------3-------0-*|| x2
D |-----2-------4---|-----4-------4---|-----2-------4---|-----4-------4---*||
A |---0-------0-----|---0-------0-----|---0-------0-----|---0-------0------||
D |-0-------0-------|-0-------0-------|-0-------0-------|-0-------0--------||

   [Part C]
      1 + 2 + 3 + 4 +   1 + 2 + 3 + 4 +   1 + 2 + 3 + 4 +   1 + 2 + 3 + 4 +
D ||----------------0-|---------------0-|---------------0-|-------------------||
A ||--------0---------|-------0---------|-------0---------|-------0-------0---||
F#||*-----8-------8---|-----8-------8---|-----7-------7---|-----7-------7----*|| x2
D ||*---9-------9-----|---9-------9-----|---7-------7-----|---7-------7------*||
A ||--0-------0-------|-0-------0-------|-0-------0-------|-0-------0---------||
D ||------------------|-----------------|-----------------|-------------------||

   [Part A2]
      1 + 2 + 3 + 4+   1 + 2 + 3 + 4 +   1 + 2 + 3 + 4 +   1 + 2 + 3 + 4 +
D ||--4h5-4p0-----0--|---2p0---4p0-----|-------0-------0-|-------0-------0----||
A ||----------0h2----|-------0-----0---|-----0-------0---|-----0-------0------||
F#||*----------------|---------------0-|---5-------3-----|---1-------1-------*|| x2
D ||*----------------|-0---------------|-5-------4-------|-2-------2---------*||
A ||-----------------|-----------------|-----------------|--------------------||
D ||--0--------------|-----------------|-----------------|--------------------||

  [Part B2]
    1 +  2  + 3 +  4  +   1 +  2  + 3 +  4  +   1 + 2 + 3 + 4 +   1 + 2 + 3 + 4 +
D |-------------------0-|-------------------0-|---------------0-|-----------------|
A |---------0-----------|---------0-----------|-------4---------|-------2-------0-|
F#|------10--------10---|------10--------10---|-----3-------3---|-----3-------3---|
D |---11--------11------|---11--------11------|---0-------0-----|---0-------0-----|
A |-0---------0---------|-0---------0---------|-----------------|-----------------|
D |---------------------|---------------------|-5-------5-------|-5-------5-------|


    1 + 2 + 3 + 4 +   1 + 2 + 3 + 4 +   1 + 2 + 3 + 4 +   1 + 2 + 3 + 4 +  
D |-----------------|-----------------|-----------------|-----------------|
A |-----------------|-----------------|-----------------|-----------------|
F#|-------1-------3-|-------3-------0-|-------1-------3-|-------3-------0-|
D |-----2-------4---|-----4-------4---|-----2-------4---|-----4-------4---|
A |---0-------0-----|---0-------0-----|---0-------0-----|---0-------0-----|
D |-0-------0-------|-0-------0-------|-0-------0-------|-0-------0-------|

  [Ending]
    1 +  2  + 3 +  4  +   1 +  2  + 3 +  4  +   1 + 2 + 3 + 4 +   1 + 2 + 3 + 4 +
D |-------------------0-|-------------------0-|---------------0-|-----------------|
A |---------0-----------|---------0-----------|-------4---------|-------2-------0-|
F#|------10--------10---|------10--------10---|-----3-------3---|-----3-------3---|
D |---11--------11------|---11--------11------|---0-------0-----|---0-------0-----|
A |-0---------0---------|-0---------0---------|-----------------|-----------------|
D |---------------------|---------------------|-5-------5-------|-5-------5-------|


    1 + 2 + 3 + 4 +   1 + 2 + 3 + 4 +   1 + 2 + 3 + 4 +   1 + 2 + 3 + 4 +    1+ 2+ 3+ 4+
D |---------------0-|-----------------|---------------0-|-----------------|--------------||
A |-------4---------|-------2-------0-|-------4---------|-------2-------0-|-(0)----------||
F#|-----3-------3---|-----3-------3---|-----3-------3---|-----3-------3---|--------------||
D |---0-------0-----|---0-------0-----|---0-------0-----|---0-------0-----|--------------||
A |-----------------|-----------------|-----------------|-----------------|--------------||
D |-5-------5-------|-5-------5-------|-5-------5-------|-5-------5-------|--------------||


* * * * * * * * * * * * * * * * * * * * * * * * * * * * * * * * * * * * * * * 


  [Part A]
     1 + 2 + 3 + 4+   1 + 2 + 3 + 4 +   1 + 2 + 3 + 4 +   1 + 2 + 3 + 4 +
D |--4h5-4p0-----0--|---2p0---4p0-----|-------0-------0-|-------0-------0--|
A |----------0h2----|-------0-----0---|-----0-------0---|-----0-------0----|
F#|-----------------|---------------0-|---5-------3-----|---1-------1------|
D |-----------------|-0---------------|-5-------4-------|-2-------2--------|
A |-----------------|-----------------|-----------------|------------------|
D |--0--------------|-----------------|-----------------|------------------|

     1 + 2 + 3 + 4+   1 + 2 + 3 + 4 +   1 + 2 + 3 + 4 +   1 + 2 + 3 + 4 +
D |--4h5-4p0-----0--|---2p0---4p0-----|-------0-------0-|-------0-------0--|
A |----------0h2----|-------0-----0---|-----0-------0---|-----0-------0----|
F#|-----------------|---------------0-|---5-------3-----|---1-------1------|
D |-----------------|-0---------------|-5-------4-------|-2-------2--------|
A |-----------------|-----------------|-----------------|------------------|
D |--0--------------|-----------------|-----------------|------------------|

  [Part B]
     1 +  2  + 3 +  4  +   1 +  2  + 3 +  4  +   1 + 2 + 3 + 4 +   1 + 2 + 3 + 4 +
D |--------------------0-|-------------------0-|---------------0-|------------------|
A |----------0-----------|---------0-----------|-------4---------|-------2-------0--|
F#|-------10--------10---|------10--------10---|-----3-------3---|-----3-------3----|
D |----11--------11------|---11--------11------|---0-------0-----|---0-------0------|
A |--0---------0---------|-0---------0---------|-----------------|------------------|
D |----------------------|---------------------|-5-------5-------|-5-------5--------|

    1 + 2 + 3 + 4 +   1 + 2 + 3 + 4 +   1 + 2 + 3 + 4 +   1 + 2 + 3 + 4 +   
D |-----------------|-----------------|-----------------|-------------------|
A |-----------------|-----------------|-----------------|-------------------|
F#|-------1-------3-|-------3-------0-|-------1-------3-|-------3-------0---|
D |-----2-------4---|-----4-------4---|-----2-------4---|-----4-------4-----|
A |---0-------0-----|---0-------0-----|---0-------0-----|---0-------0-------|
D |-0-------0-------|-0-------0-------|-0-------0-------|-0-------0---------|

     1 +  2  + 3 +  4  +   1 +  2  + 3 +  4  +   1 + 2 + 3 + 4 +   1 + 2 + 3 + 4 +
D |--------------------0-|-------------------0-|---------------0-|------------------|
A |----------0-----------|---------0-----------|-------4---------|-------2-------0--|
F#|-------10--------10---|------10--------10---|-----3-------3---|-----3-------3----|
D |----11--------11------|---11--------11------|---0-------0-----|---0-------0------|
A |--0---------0---------|-0---------0---------|-----------------|------------------|
D |----------------------|---------------------|-5-------5-------|-5-------5--------|

     1 + 2 + 3 + 4 +   1 + 2 + 3 + 4 +   1 + 2 + 3 + 4 +   1 + 2 + 3 + 4 +   
D |------------------|-----------------|-----------------|------------------|
A |------------------|-----------------|-----------------|------------------|
F#|--------1-------3-|-------3-------0-|-------1-------3-|-------3-------0--|
D |------2-------4---|-----4-------4---|-----2-------4---|-----4-------4----|
A |----0-------0-----|---0-------0-----|---0-------0-----|---0-------0------|
D |--0-------0-------|-0-------0-------|-0-------0-------|-0-------0--------|

   [Part C]
     1 + 2 + 3 + 4 +   1 + 2 + 3 + 4 +   1 + 2 + 3 + 4 +   1 + 2 + 3 + 4 +
D |----------------0-|---------------0-|---------------0-|------------------|
A |--------0---------|-------0---------|-------0---------|-------0-------0--|
F#|------8-------8---|-----8-------8---|-----7-------7---|-----7-------7----|
D |----9-------9-----|---9-------9-----|---7-------7-----|---7-------7------|
A |--0-------0-------|-0-------0-------|-0-------0-------|-0-------0--------|
D |------------------|-----------------|-----------------|------------------|

     1 + 2 + 3 + 4 +   1 + 2 + 3 + 4 +   1 + 2 + 3 + 4 +   1 + 2 + 3 + 4 +
D |----------------0-|---------------0-|---------------0-|------------------|
A |--------0---------|-------0---------|-------0---------|-------0-------0--|
F#|------8-------8---|-----8-------8---|-----7-------7---|-----7-------7----|
D |----9-------9-----|---9-------9-----|---7-------7-----|---7-------7------|
A |--0-------0-------|-0-------0-------|-0-------0-------|-0-------0--------|
D |------------------|-----------------|-----------------|------------------|

  [Part A2]
     1 + 2 + 3 + 4+   1 + 2 + 3 + 4 +   1 + 2 + 3 + 4 +   1 + 2 + 3 + 4 +
D |--4h5-4p0-----0--|---2p0---4p0-----|-------0-------0-|-------0-------0---|
A |----------0h2----|-------0-----0---|-----0-------0---|-----0-------0-----|
F#|-----------------|---------------0-|---5-------3-----|---1-------1-------|
D |-----------------|-0---------------|-5-------4-------|-2-------2---------|
A |-----------------|-----------------|-----------------|-------------------|
D |--0--------------|-----------------|-----------------|-------------------|

     1 + 2 + 3 + 4+   1 + 2 + 3 + 4 +   1 + 2 + 3 + 4 +   1 + 2 + 3 + 4 +
D |--4h5-4p0-----0--|---2p0---4p0-----|-------0-------0-|-------0-------0---|
A |----------0h2----|-------0-----0---|-----0-------0---|-----0-------0-----|
F#|-----------------|---------------0-|---5-------3-----|---1-------1-------|
D |-----------------|-0---------------|-5-------4-------|-2-------2---------|
A |-----------------|-----------------|-----------------|-------------------|
D |--0--------------|-----------------|-----------------|-------------------|

  [Part B2]
    1 +  2  + 3 +  4  +   1 +  2  + 3 +  4  +   1 + 2 + 3 + 4 +   1 + 2 + 3 + 4 +
D |-------------------0-|-------------------0-|---------------0-|-----------------|
A |---------0-----------|---------0-----------|-------4---------|-------2-------0-|
F#|------10--------10---|------10--------10---|-----3-------3---|-----3-------3---|
D |---11--------11------|---11--------11------|---0-------0-----|---0-------0-----|
A |-0---------0---------|-0---------0---------|-----------------|-----------------|
D |---------------------|---------------------|-5-------5-------|-5-------5-------|


    1 + 2 + 3 + 4 +   1 + 2 + 3 + 4 +   1 + 2 + 3 + 4 +   1 + 2 + 3 + 4 +  
D |-----------------|-----------------|-----------------|-------------------|
A |-----------------|-----------------|-----------------|-------------------|
F#|-------1-------3-|-------3-------0-|-------1-------3-|-------3-------0---|
D |-----2-------4---|-----4-------4---|-----2-------4---|-----4-------4-----|
A |---0-------0-----|---0-------0-----|---0-------0-----|---0-------0-------|
D |-0-------0-------|-0-------0-------|-0-------0-------|-0-------0---------|

  [Ending]
    1 +  2  + 3 +  4  +   1 +  2  + 3 +  4  +   1 + 2 + 3 + 4 +   1 + 2 + 3 + 4 +
D |-------------------0-|-------------------0-|---------------0-|-----------------|
A |---------0-----------|---------0-----------|-------4---------|-------2-------0-|
F#|------10--------10---|------10--------10---|-----3-------3---|-----3-------3---|
D |---11--------11------|---11--------11------|---0-------0-----|---0-------0-----|
A |-0---------0---------|-0---------0---------|-----------------|-----------------|
D |---------------------|---------------------|-5-------5-------|-5-------5-------|


    1 + 2 + 3 + 4 +   1 + 2 + 3 + 4 +   1 + 2 + 3 + 4 +   1 + 2 + 3 + 4 +    1+ 2+ 3+ 4+
D |---------------0-|-----------------|---------------0-|-----------------|--------------||
A |-------4---------|-------2-------0-|-------4---------|-------2-------0-|-(0)----------||
F#|-----3-------3---|-----3-------3---|-----3-------3---|-----3-------3---|--------------||
D |---0-------0-----|---0-------0-----|---0-------0-----|---0-------0-----|--------------||
A |-----------------|-----------------|-----------------|-----------------|--------------||
D |-5-------5-------|-5-------5-------|-5-------5-------|-5-------5-------|--------------||


************************************

| h  Hammer-on
| p  Pull-off
| () Tied Note

************************************
Suggest correction
Creating personal tab
Creating personal tab
You can edit any tab online and save it as your Personal.

You can edit, replace or remove any tab part or add personal notes – all changes will be seen only by you.

Personal tabs can be accessed anytime from any device, even offline.
Learn more »
Give kudos to tab author, rate the tab!
1 2 3 4 5
comments
print report bad tab
6 comments total. Showing first comments.
0 reply
denisturbide 10 Jun 27, 2017 07:46 AM

Hey iceburst, Denis Turbide here. Just to correct your tab, I wrote and play Dimples in open D tuning(DADF#AD),and not DADGAD. Here's a link to a few of my tabs. You can post them if you like and thanks so much for actually taking the time to tab out Dimples:

https://www.dropbox.com/sh/74ck2jshnsz8fq4/AACIhE9V-tBhWrlDXBaXIQMja?dl=0

0 reply
denisturbide 10 Jun 27, 2017 10:00 AM

And here's the link to the tune on Spotify

https://open.spotify.com/track/5zli7637UIimvFW4XOlnqS

0 reply
denisturbide 10 Jun 27, 2017 11:03 AM

And the Youtube video

https://youtu.be/m4l4jSN3mOM

guest
You may want to rate the tab now too:
select rating
Wanna post a correction for this tab? Suggest correction