Oops, an error
Loading. Please wait.

Samuel tab

31 views 1 this week
no commentswrite comment
1 2 3 4 5
3 more votes to show rating
add to favorites
×
Save as Personal and add changes to this tab that will be seen only by you. Learn more ›
×
You can save this tab as Personal to edit and correct it or add notes. All changes will be seen only by you. Learn more »
launch autoscroll
font size
0
reset
how to read this tab
guitar tuner
edit
Autoscroll
slow
fast
+/-
esc
set tempo
stop
Celtic Tuning (DADGAD)
Recommended Tempo: 210bpm (Prestissimo)
Time Signature: 4/4

[Part A]
   1+ 2 + 3 + 4+   1+ 2+ 3+ 4+   1 + 2 + 3 + 4+   1+ 2+ 3 + 4+
D|------0--------|-------------|-------0--------|----------------|
A|-4--------0----|-------------|-4---------0----|----------------|
G|---------------|-------------|---0------------|----------------|
D|----0-------0--|----0-----0--|-----0-------0--|----0------0----|
A|---------------|-------------|----------------|-------0h2------|
D|-5------5------|-5-----5-----|-5-------5------|-5--------------|

   1+ 2 + 3 + 4+   1+ 2+ 3 + 4+   1+ 2 + 3 + 4+   1+ 2 + 3 + 4+
D|------------0--|--------------|------------0--|----------------|
A|---------------|--------------|----------0----|----------------|
G|------2---2----|---(2)--------|------2--------|------2---------|
D|----4--(4)--4--|----4------0--|----4--(4)--4--|----4-------0---|
A|---------------|-------0h2----|---------------|--------0h2-----|
D|-0------0------|-0------------|-0------0------|-0--------------|

   1+ 2 + 3 + 4+   1+ 2+ 3+ 4+   1 + 2 + 3 + 4+   1+ 2+ 3 + 4 +
D|------0--------|-------------|-------0--------|----------------|
A|-4--------0----|-------------|-4---------0----|---------0------|
G|---------------|-------------|---0------------|-----------0----|
D|----0-------0--|----0-----0--|-----0-------0--|----0--------0--|
A|---------------|-------------|----------------|----------------|
D|-5------5------|-5-----5-----|-5-------5------|-5-----5--------|

   1+ 2 + 3 + 4+   1 + 2 + 3+ 4+   1+ 2 + 3+ 4+   1+ 2 + 3 + 4 +
D|------0--------|---0--------0--|------0-------|--------------7-|
A|-4--------4----|---------4-----|-5---------5--|--------5h7/9---|
G|---------------|------(0)------|--------------|------0---------|
D|----0-------0--|-----0------0--|----0------0--|----0-----------|
A|---------------|---------------|--------------|----------------|
D|-7------7------|-7-------7-----|-5------5-----|-5------5-------|

[Part B]
   1+ 2 + 3+ 4+   1+ 2+ 3 + 4 +   1+ 2 + 3+ 4+   1+ 2+ 3 + 4 +
D|--------------|-------------7-|--------------|-------------7--|
A|-9----9----9--|-------5h7/9---|-9----7----5--|-------5h7/9----|
G|--------------|---------------|--------------|----------------|
D|----0------0--|----0----------|----0------0--|----0-----------|
A|--------------|---------------|--------------|----------------|
D|-0------0-----|-0-----0-------|-0------0-----|-0-----0--------|

   1+ 2 + 3+ 4+   1+ 2+ 3 + 4 +   1+ 2 + 3+ 4+   1+ 2+ 3 + 4 +
D|--------------|-------------7-|--------------|----------------|
A|-9----9----9--|-------5h7/9---|-9----7----5--|---------0------|
G|--------------|---------------|--------------|-------------0--|
D|----0------0--|----0----------|----0------0--|----0------0----|
A|--------------|---------------|--------------|----------------|
D|-0------0-----|-0-----0-------|-0------0-----|-0-----0--------|

   1 + 2 + 3+ 4+   1+ 2+ 3 + 4 +   1 + 2 + 3+ 4+   1+ 2 + 3 + 4 +
D|-------0-------|---------------|-------0-------|--------------7-|
A|-3----------0--|---------0-----|-3----------0--|--------5h7/9---|
G|---4-----------|-------------4-|---4-----------|-----(0)--------|
D|-----5------5--|----5------5---|-----5------5--|----0-----------|
A|---------------|---------------|---------------|----------------|
D|-5-------5-----|-5-----5-------|-5-------5-----|-5--------------|

[Part C]
   1+ 2 + 3+ 4+   1+ 2+ 3 + 4 +   1+ 2 + 3+ 4+   1+ 2 + 3 +  4 +
D|--------------|-------------7-|--------------|---------------9--|
A|-9----9----9--|-------5h7/9---|-9----7----5--|--------7h9/10----|
G|--------------|---------------|--------------|-----(0)----------|
D|----0------0--|----0----------|----0------0--|----0-------------|
A|--------------|---------------|--------------|------------------|
D|-0------0-----|-0-----0-------|-0------0-----|-0------0---------|

    1+ 2  + 3+  4+   1+ 2 + 3 +  4 +    1+ 2 + 3+ 4+   1+ 2 + 3 + 4 +
D|-----------------|---------------9-|---------------|--------4h5/7-9-|
A|-10----10----10--|--------7h9/10---|-10----9----7--|----------------|
G|-----------------|------0----------|---------------|-----(0)--------|
D|-----0--------0--|----0------------|-----0------0--|----0-------0---|
A|-----------------|-----------------|---------------|----------------|
D|--9-------9------|-9------0--------|--9------0-----|-0------0-------|

   1+ 2 + 3+ 4+   1+ 2 + 3 + 4 +   1+ 2 + 3 + 4+   1+ 2+ 3 + 4+
D|-7----5----4--|--------2-4p2-0-|------------0--|----------------|
A|--------------|-----(0)--------|------0---0----|---------0------|
G|--------------|----------------|---------------|----------------|
D|----0------0--|----0-----------|----0-------0--|----0------0----|
A|--------------|----------------|---------------|----------------|
D|-0------0-----|-0------0-------|-0------0------|-0-----0--------|

   1+ 2 + 3+ 4+   1+ 2+ 3 + 4 +   1+ 2 + 3+ 4+   1+ 2 + 3 +  4 +
D|--------------|-------------7-|--------------|---------------9--|
A|-9----9----9--|-------5h7/9---|-9----7----5--|--------7h9/10----|
G|--------------|---------------|--------------|-----(0)----------|
D|----0------0--|----0----------|----0------0--|----0-------------|
A|--------------|---------------|--------------|------------------|
D|-0------0-----|-0-----0-------|-0------0-----|-0------0---------|

    1+ 2  + 3 + 4+   1+ 2 + 3 +  4 +    1+ 2 + 3+ 4+   1+ 2 + 3 + 4 +
D|-----------------|---------------9-|---------------|--------4h5/7-9-|
A|-10----10----10--|--------7h9/10---|-10----9----7--|----------------|
G|-----------------|------0----------|---------------|-----(0)--------|
D|-----0--------0--|----0------------|-----0------0--|----0-------0---|
A|-----------------|-----------------|---------------|----------------|
D|--9-------9------|-9-----(0)-------|--9------0-----|-0------0-------|

   1+ 2 + 3+ 4+   1+ 2 + 3 + 4 +   1+ 2 + 3 + 4+   1+ 2+ 3 + 4+
D|-7----5----4--|--------2-4p2-0-|------------0--|----------------|
A|--------------|-----(0)--------|------0---0----|---------0------|
G|--------------|----------------|---------------|----------------|
D|----0------0--|----0-----------|----0-------0--|----0------0----|
A|--------------|----------------|---------------|----------------|
D|-0------0-----|-0------0-------|-0------0------|-0-----0--------|

[Part D]
   1+ 2 + 3+ 4+    1   +  2 + 3 + 4+   1+ 2 + 3+ 4+    1   +  2 + 3 + 4+
D|-0----0----0--|--0---0-------------|-0----0----0--|--0---0-------------|
A|-0---------0--|--0--(0)------------|-0---------0--|--0--(0)------------|
G|-2---------0--|-(0)----------------|-2---------0--|-(0)----------------|
D|-0---------0--|-------------0---0--|-0---------0--|-------------0---0--|
A|-0------0--2--|---------0h4---4----|-0------0--2--|---------0h4---4----|
D|-0---------0--|--------------------|-0---------0--|--------------------|

   1+ 2 + 3+ 4+    1   +  2 + 3 + 4+   1+ 2+ 3+   4   +     1  +  2 + 3 + 4+
D|-0----0----0--|--0---0-------------|-0-----0----0---0--|--0--0-------------|
A|-0---------0--|--0--(0)------------|-0-----0----0--(0)-|--0-(0)------------|
G|-2---------0--|-(0)----------------|-2-----2---(2)-----|-(2)---------------|
D|-0---------0--|-------------0---0--|-0-----0-----------|------------0---0--|
A|-0------0--2--|---------0h4---4----|-0----(0)----------|--------0h4---4----|
D|-0---------0--|--------------------|-0----(0)----------|-------------------|

   1+ 2 + 3+ 4+    1   +  2 + 3 + 4+   1+ 2 + 3+ 4+    1   +  2 + 3 + 4+
D|-0----0----0--|--0---0-------------|-0----0----0--|--0---0-------------|
A|-0---------0--|--0--(0)------------|-0---------0--|--0--(0)------------|
G|-2---------0--|-(0)----------------|-2---------0--|-(0)----------------|
D|-0---------0--|-------------0---0--|-0---------0--|-------------0---0--|
A|-0------0--2--|---------0h4---4----|-0------0--2--|---------0h4---4----|
D|-0---------0--|--------------------|-0---------0--|--------------------|

   1+ 2 + 3+ 4+    1   +  2 + 3 + 4+   1+ 2+ 3+ 4 +     1+  2+ 3 + 4 +
D|-0----0----0--|--0---0-------------|-0-----0----0--|--0---0--------7---|
A|-0---------0--|--0--(0)------------|-0-----0----0--|-(0)--0--5h7/9-----|
G|-2---------0--|-(0)----------------|-2-----2---(2)-|------2------------|
D|-0---------0--|-------------0---0--|-0----(0)------|------0------------|
A|-0------0--2--|---------0h4---4----|-0----(0)------|-----(0)-----------|
D|-0---------0--|--------------------|-0----(0)------|-----(0)-----------|

[Part A2]
  1+ 2 + 3 + 4+   1+ 2+ 3+ 4+   1 + 2 + 3 + 4+   1+ 2+ 3 + 4+
D|------0--------|-------------|-------0--------|---------------|
A|-4--------0----|-------------|-4---------0----|---------------|
G|---------------|-------------|---0------------|---------------|
D|----0-------0--|----0-----0--|-----0-------0--|----0------0---|
A|---------------|-------------|----------------|-------0h2-----|
D|-5------5------|-5-----5-----|-5-------5------|-5-------------|

   1+ 2 + 3 + 4+   1+ 2+ 3 + 4+   1+ 2 + 3 + 4+   1+ 2 + 3 + 4+
D|------------0--|--------------|------------0--|---------------|
A|---------------|--------------|----------0----|---------------|
G|------2---2----|---(2)--------|------2--------|------2--------|
D|----4--(4)--4--|----4------0--|----4--(4)--4--|----4-------0--|
A|---------------|-------0h2----|---------------|--------0h2----|
D|-0------0------|-0------------|-0------0------|-0-------------|

   1+ 2 + 3 + 4+   1+ 2+ 3+ 4+   1 + 2 + 3 + 4+   1+ 2+ 3 + 4 +
D|------0--------|-------------|-------0--------|---------------|
A|-4--------0----|-------------|-4---------0----|---------0-----|
G|---------------|-------------|---0------------|-----------0---|
D|----0-------0--|----0-----0--|-----0-------0--|----0--------0-|
A|---------------|-------------|----------------|---------------|
D|-5------5------|-5-----5-----|-5-------5------|-5-----5-------|

   1+ 2 + 3 + 4+   1 + 2 + 3+ 4+   1+ 2 + 3+ 4+   1+ 2 + 3 + 4 +
D|------0--------|---0--------0--|------0-------|--------------7-|
A|-4--------4----|---------4-----|-5---------5--|--------5h7/9---|
G|---------------|------(0)------|--------------|------0---------|
D|----0-------0--|-----0------0--|----0------0--|----0-----------|
A|---------------|---------------|--------------|----------------|
D|-7------7------|-7-------7-----|-5------5-----|-5------5-------|

[Part B2]
   1+ 2 + 3+ 4+   1+ 2+ 3 + 4 +   1+ 2 + 3+ 4+   1+ 2+ 3 + 4 +
D|--------------|-------------7-|--------------|-------------7--|
A|-9----9----9--|-------5h7/9---|-9----7----5--|-------5h7/9----|
G|--------------|---------------|--------------|----------------|
D|----0------0--|----0----------|----0------0--|----0-----------|
A|--------------|---------------|--------------|----------------|
D|-0------0-----|-0-----0-------|-0------0-----|-0-----0--------|

   1+ 2 + 3+ 4+   1+ 2+ 3 + 4 +   1+ 2 + 3+ 4+   1+ 2+ 3 + 4 +
D|--------------|-------------7-|--------------|----------------|
A|-9----9----9--|-------5h7/9---|-9----7----5--|---------0------|
G|--------------|---------------|--------------|-------------0--|
D|----0------0--|----0----------|----0------0--|----0------0----|
A|--------------|---------------|--------------|----------------|
D|-0------0-----|-0-----0-------|-0------0-----|-0-----0--------|


   1 + 2 + 3+ 4+   1+ 2+ 3 + 4 +   1 + 2 + 3+ 4+   1+ 2 + 3 + 4 +
D|-------0-------|---------------|-------0-------|--------------7-|
A|-3----------0--|---------0-----|-3----------0--|--------5h7/9---|
G|---4-----------|-------------4-|---4-----------|-----(0)--------|
D|-----5------5--|----5------5---|-----5------5--|----0-----------|
A|---------------|---------------|---------------|----------------|
D|-5-------5-----|-5-----5-------|-5-------5-----|-5--------------|

[Part C2]
   1+ 2 + 3+ 4+   1+ 2+ 3 + 4 +   1+ 2 + 3+ 4+   1+ 2 + 3 +  4 +
D|--------------|-------------7-|--------------|---------------9--|
A|-9----9----9--|-------5h7/9---|-9----7----5--|--------7h9/10----|
G|--------------|---------------|--------------|-----(0)----------|
D|----0------0--|----0----------|----0------0--|----0-------------|
A|--------------|---------------|--------------|------------------|
D|-0------0-----|-0-----0-------|-0------0-----|-0------0---------|

    1+ 2  + 3 + 4+   1+ 2 + 3 +  4 +    1+ 2 + 3+ 4+   1+ 2 + 3 + 4 +
D|-----------------|---------------9-|---------------|--------4h5/7-9-|
A|-10----10----10--|--------7h9/10---|-10----9----7--|----------------|
G|-----------------|------0----------|---------------|-----(0)--------|
D|-----0--------0--|----0------------|-----0------0--|----0-------0---|
A|-----------------|-----------------|---------------|----------------|
D|--9-------9------|-9-----(0)-------|--9------0-----|-0------0-------|

   1+ 2 + 3+ 4+   1+ 2 + 3 + 4 +   1+ 2 + 3 + 4+   1+ 2+ 3 + 4 +
D|-7----5----4--|--------2-4p2-0-|------------0--|---------------|
A|--------------|-----(0)--------|------0---0----|---------0-----|
G|--------------|----------------|---------------|---------------|
D|----0------0--|----0-----------|----0-------0--|----0------0---|
A|--------------|----------------|---------------|---------------|
D|-0------0-----|-0------0-------|-0------0------|-0-----0-------|

   1+ 2 + 3+ 4+   1+ 2+ 3 + 4 +   1+ 2 + 3+ 4+   1+ 2 + 3 +  4 +
D|--------------|-------------7-|--------------|---------------9-|
A|-9----9----9--|-------5h7/9---|-9----7----5--|--------7h9/10---|
G|--------------|---------------|--------------|-----(0)---------|
D|----0------0--|----0----------|----0------0--|----0------------|
A|--------------|---------------|--------------|-----------------|
D|-0------0-----|-0-----0-------|-0------0-----|-0------0--------|

    1+ 2  + 3+  4+   1+ 2 + 3 +  4 +    1+ 2 + 3+ 4+   1+ 2 + 3 + 4 +
D|-----------------|---------------9-|---------------|--------4h5/7-9-|
A|-10----10----10--|--------7h9/10---|-10----9----7--|----------------|
G|-----------------|------0----------|---------------|-----(0)--------|
D|-----0--------0--|----0------------|-----0------0--|----0-------0---|
A|-----------------|-----------------|---------------|----------------|
D|--9-------9------|-9-----(0)-------|--9------0-----|-0------0-------|

   1+ 2 + 3+ 4+   1+ 2 + 3 + 4 +   1+ 2 + 3 + 4+   1+ 2+ 3 + 4 +
D|-7----5----4--|--------2-4p2-0-|------------0--|---------------|
A|--------------|-----(0)--------|------0---0----|---------0-----|
G|--------------|----------------|---------------|---------------|
D|----0------0--|----0-----------|----0-------0--|----0------0---|
A|--------------|----------------|---------------|---------------|
D|-0------0-----|-0------0-------|-0------0------|-0-----0-------|

[Part D2]
   1+ 2 + 3+ 4+    1   +  2 + 3 + 4+   1+ 2 + 3+ 4+    1   +  2 + 3 + 4+
D|-0----0----0--|--0---0-------------|-0----0----0--|--0---0-------------|
A|-0---------0--|--0--(0)------------|-0---------0--|--0--(0)------------|
G|-2---------0--|-(0)----------------|-2---------0--|-(0)----------------|
D|-0---------0--|-------------0---0--|-0---------0--|-------------0---0--|
A|-0------0--2--|---------0h4---4----|-0------0--2--|---------0h4---4----|
D|-0---------0--|--------------------|-0---------0--|--------------------|

   1+ 2 + 3+ 4+    1   +  2 + 3 + 4+   1+ 2+ 3+   4   +     1  +  2 + 3 + 4+
D|-0----0----0--|--0---0-------------|-0-----0----0---0--|--0--0-------------|
A|-0---------0--|--0--(0)------------|-0-----0----0--(0)-|--0-(0)------------|
G|-2---------0--|-(0)----------------|-2-----2---(2)-----|-(2)---------------|
D|-0---------0--|-------------0---0--|-0-----0-----------|------------0---0--|
A|-0------0--2--|---------0h4---4----|-0----(0)----------|--------0h4---4----|
D|-0---------0--|--------------------|-0----(0)----------|-------------------|

   1+ 2 + 3+ 4+    1   +  2 + 3 + 4+   1+ 2 + 3+ 4+    1   +  2 + 3 + 4+
D|-0----0----0--|--0---0-------------|-0----0----0--|--0---0-------------|
A|-0---------0--|--0--(0)------------|-0---------0--|--0--(0)------------|
G|-2---------0--|-(0)----------------|-2---------0--|-(0)----------------|
D|-0---------0--|-------------0---0--|-0---------0--|-------------0---0--|
A|-0------0--2--|---------0h4---4----|-0------0--2--|---------0h4---4----|
D|-0---------0--|--------------------|-0---------0--|--------------------|

   1+ 2 + 3+ 4+    1   +  2 + 3 + 4+   1+ 2 + 3+ 4+
D|-0----0----0--|--0---0-------------|-0------------|
A|-0---------0--|--0--(0)------------|-0------------|
G|-2---------0--|-(0)----------------|-2------------|
D|-0---------0--|-------------0---0--|-0------------|
A|-0------0--2--|---------0h4---4----|-0------------|
D|-0---------0--|--------------------|-0------------|


************************************

| h  Hammer-on
| p  Pull-off
| () Tied Note
| /  Slide up

************************************

            
            
Suggest correction
Creating personal tab
Creating personal tab
You can edit any tab online and save it as your Personal.

You can edit, replace or remove any tab part or add personal notes – all changes will be seen only by you.

Personal tabs can be accessed anytime from any device, even offline.
Learn more »
Give kudos to tab author, rate the tab!
1 2 3 4 5
comments
print report bad tab
guest
You may want to rate the tab now too:
select rating
Wanna post a correction for this tab? Suggest correction