Oops, an error
Loading. Please wait.

You And I Bass Tab

40 views 3 this week
no commentswrite comment
1 2 3 4 5
3 more votes to show rating
add to favorites
launch autoscroll
font size
0
reset
guitar tuner
Autoscroll
slow
fast
+/-
esc
set tempo
stop
Help us to improve Ultimate-Guitar.com Take our survey!
×
Author
Difficulty
novice
Tuning :

G
D
A
C


[Intro]

G|----------------|----------------|----------------| (x3)
D|----------------|----------------|----------------|
A|--4-------------|--6-------------|--3-------------|
C|----------------|----------------|----------------|


[Verse 1]

G|----------------|----------------|----------------|----------------|
D|----------------|----------------|----------------|----------------|
A|----------------|----------------|----------------|----------------|
C|--5-------------|--2-------------|--5-------------|--2-------------|


G|----------------|----------------|----------------|----------------|
D|----------------|----------------|----------------|----------------|
A|----------------|----------------|--1-------------|--1-------------|
C|--7-------------|--7-------------|----------------|----------------|


G|----------------|----------------|----------------|----------------|
D|----------------|----------------|----------------|----------------|
A|----------------|----------------|----------------|----------------|
C|--5-------------|--3-------------|--0-------------|--5-------------|


G|----------------|----------------|----------------| 
D|----------------|----------------|----------------|
A|--4-------------|--6-------------|--3-------------|
C|----------------|----------------|----------------|


[Verse 2]

G|----------------|----------------|----------------|----------------|
D|----------------|----------------|----------------|----------------|
A|----------------|----------------|----------------|----------------|
C|--5-------------|--2-------------|--5-------------|--2-------------|


G|----------------|----------------|----------------|----------------|
D|----------------|----------------|----------------|----------------|
A|----------------|----------------|--1-------------|--1-------------|
C|--7-------------|--7-------------|----------------|----------------|


G|----------------|----------------|----------------|----------------|
D|----------------|----------------|----------------|----------------|
A|----------------|----------------|----------------|----------------|
C|--5-------------|--3-------------|--0-------------|--5-------------|


G|----------------|----------------|----------------|
D|----------------|----------------|----------------|
A|--------r-------|----------------|----------------|
C|----------------|--5-------------|--5-------------|


G|----------------|----------------|----------------| 
D|----------------|----------------|----------------|
A|--4-------------|--6-------------|--3-------------|
C|----------------|----------------|----------------|


[Instrumental]

G|----------------|----------------|----------------|----------------|
D|----------------|----------------|----------------|----------------|
A|----------------|----------------|----------------|----------------|
C|--5-------------|--2-------------|--5-------------|--2-------------|


G|----------------|-----------|----------------|----------------|
D|----------------|-----------|----------------|----------------|
A|----------------|--------0--|--1-------------|--1-------------|
C|--7-------------|--7--------|----------------|----------------|


G|----------------|----------------|----------------|----------------|
D|----------------|----------------|----------------|----------------|
A|----------------|----------------|----------------|----------------|
C|--5-------------|--3-------------|--0-------------|--5-------------|


G|----------------|----------------|----------------|----------------|
D|----------------|----------------|----------------|----------------|
A|----------------|----------------|----------------|----------------|
C|--5-------------|--5-------------|--5-------------|--5-------------|


[Verse 3]

G|---------|----------------|----------------|----------------| (x4)
D|---------|----------------|----------------|----------------|
A|------0--|--1-------------|----------------|----------------|
C|--7------|----------------|--7-------------|--5-------------|


[Outro] (repeat until the end)

G|----------------|----------------|----------------| 
D|----------------|----------------|----------------|
A|--4-------------|--6-------------|--3-------------|
C|----------------|----------------|----------------|



**********************

| r : rest

**********************

in regular sequence!
Suggest correction
Give kudos to tab author, rate the tab!
1 2 3 4 5
comments
print report bad tab
guest
You may want to rate the tab now too:
select rating
Wanna post a correction for this tab? Suggest correction