Oops, an error
Loading. Please wait.

Simone bass

7 views 1 this week
no commentswrite comment
1 2 3 4 5
3 more votes to show rating
add to favorites
×
Save as Personal and add changes to this tab that will be seen only by you. Learn more ›
×
You can save this tab as Personal to edit and correct it or add notes. All changes will be seen only by you. Learn more »
launch autoscroll
font size
0
reset
guitar tuner
edit
Autoscroll
slow
fast
+/-
esc
set tempo
stop
Author
Difficulty
Tabbed by: 6METAL6BASSIST6
E-mail: petergriffinav@gmail.com

Tuning: EADG

G|--------------------------------8-------------------------------|
D|----------------------------8h10--------------------------------|
A|6---------------------------------------------------------------|
E|----------------------------------------------------------------|

G|----------------------------------------------------------------|
D|--------------------------------1---------------------------0---|
A|----------------------------1h3---------------------1---3-------|
E|--------------------------------------------1---4---------------|

0:12

G|----------------------------------------------------------------|
D|1---1-------1---0---0-------0-----------------------------------|
A|--------------------------------3---3-------3---1---1-----------|
E|------------------------------------------------------------3---|

G|----------------------------------------------------------------|
D|----------------------------------------------------------------|
A|--------------------------------------------------------3-------|
E|4---4-------4---3---3-------3---1---1---1-------4---4-----------|

G|----------------------------------------------------------------|
D|------------------------------------------------------------3---|
A|1---1-------1---------------------------------------------------|
E|----------------4---4-------4---3---3-------3---1---1-----------|

G|----------------------------------------------------------------|
D|1---1-------1---1---1-------1-------------------------------0---|
A|--------------------------------1---1-------1---1---1-----------|
E|----------------------------------------------------------------|

0:32

G|----------------------------------------------------------------|
D|1---1-------1---0---0-------0-----------------------------------|
A|--------------------------------3---3-------3---1---1-----------|
E|------------------------------------------------------------3---|

G|----------------------------------------------------------------|
D|----------------------------------------------------------------|
A|--------------------------------------------------------3-------|
E|4---4-------4---3---3-------3---1---1---1-------4---4-----------|

G|----------------------------------------------------------------|
D|------------------------------------------------------------3---|
A|1---1-------1---------------------------------------------------|
E|----------------4---4-------4---3---3-------3---1---1-----------|

G|----------------------------------------------------------------|
D|1---------------1---3---5---7---8-----------3-------------------|
A|------------1h3---------------------------------1---1---1---0---|
E|----------------------------------------------------------------|

0:54

G|----------------------------------------------------------------|
D|----------------------------------------------------------------|
A|3-------3-------3-------3-------------------6-----------6-------|
E|------------3---------------3---4-------4-------4-----------4---|

G|----------------------------------------------------------------|
D|--------------------------------1---1---------------------------|
A|------------3-----------3-------------------1-------1---1---2---|
E|1-------1-------1-----------1-----------------------------------|

G|----------------------------------------------------------------|
D|----------------------------------------------------------------|
A|3-------3-------3-------3-------------------6-----------6-------|
E|------------3---------------3---4-------4-------4-----------4---|

G|----------------------------------------------------------------|
D|----------------------------------------------------------------|
A|------------3-----------3-------1---1-----------1---------------|
E|1-------1-------1-----------1-----------------------------------|

G|--------------------------------|
D|----------------------------0---|
A|1---1---1-------1-------1-------|
E|--------------------------------|

1:16

G|----------------------------------------------------------------|
D|1---1-------1---0---0-------0-----------------------------------|
A|--------------------------------3---3-------3---1---1-----------|
E|------------------------------------------------------------3---|

G|----------------------------------------------------------------|
D|----------------------------------------------------------------|
A|--------------------------------------------------------3-------|
E|4---4-------4---3---3-------3---1---1---1-------3---4-----------|

G|----------------------------------------------------------------|
D|----------------------------------------------------------------|
A|1---1-------1---------------------------------------------------|
E|----------------4---4-------4---3---3-------3---1---1-----------|

G|----------------------------------------------------------------|
D|1-------------------------------1---------------------------0---|
A|----------------------------------------------------1---3-------|
E|----3-----------------------------------1---3---4---------------|

G|--------------------------------|
D|1---------------------------0---|
A|--------------------1---3-------|
E|--------1---3---4---------------|

1:39

G|----------------------------------------------------------------|
D|1---1-------1---0---0-------0-----------------------------------|
A|--------------------------------3---3-------3---1---1-----------|
E|------------------------------------------------------------3---|

G|----------------------------------------------------------------|
D|----------------------------------------------------------------|
A|--------------------------------------------------------1---1---|
E|4---4-------4---3---3-------3---1---1---3---3---4---4-----------|

1:48

G|----------------------------------------------------------------|
D|----------------------------------------------------------------|
A|3-------3-------3-------3-------------------6---------------6-\-|
E|------------3---------------3---4-------4-------4-------4-------|

G|----------------------------------------------------------------|
D|--------------------------------1---1---------------------------|
A|------------3---------------3---------------1-------1---1---2---|
E|1-------1-------1-------1---------------------------------------|

G|----------------------------------------------------------------|
D|----------------------------------------------------------------|
A|3-------3-------3-------3-------------------6---------------6-\-|
E|------------3---------------3---4-------4-------4-------4-------|

G|----------------------------------------------------------------|
D|----------------------------------------------------------------|
A|------------3---------------3---1---1-----------1---1-----------|
E|1-------1-------1-------1---------------------------------------|

G|--------------------------------|
D|--------------------------------|
A|1---1---1---1---2---2---2---2---|
E|--------------------------------|

2:12

G|----------------------------------------------------------------|
D|2-----------2---1---1-------1-----------------------------------|
A|--------------------------------4---4-------4---2---2-------2---|
E|----------------------------------------------------------------|

G|----------------------------------------------------------------|
D|----------------------------------------------------------------|
A|0---0-------0-----------------------------------0---0---4---4---|
E|----------------4---4-------4---2---2---4---4-------------------|

G|----------------------------------------------------------------|
D|----------------------------------------------------------------|
A|2---2-------2---0---0-------0-----------------------------------|
E|--------------------------------4---4-------4---2---2-------2---|

2:26

G|----------------------------------------------------------------|
D|2---------------------------1---2---------------------------1---|
A|----------------0---2---4-----------------------0---2---4-------|
E|----0---2---4-----------------------0---2---4-------------------|

G|--------------------------------|
D|2---------------------------1---|
A|----------------0---2---4-------|
E|----0---2---4-------------------|

G|----------------------------------------------------------------|.
D|2---2-------2---1---1-------1-----------------------------------|.
A|--------------------------------4---4-------4---2---2-------2---|.
E|----------------------------------------------------------------|.
                                                                   . x2
G|----------------------------------------------------------------|.
D|----------------------------------------------------1---2---4---|.
A|0---0-------0---------------------------0---2---4---------------|.
E|----------------4---4-------4---2---4---------------------------|.

G|----------------------------------------------------------------|
D|2---2-------2---1---1-------1-----------------------------------|
A|--------------------------------4---4-------4---2---2-------2---|
E|----------------------------------------------------------------|

G|----------------------------------------------------------------|
D|--------------------------------------------------------2---4---|
A|0---0-------0---------------------------0---2---2---4-----------|
E|----------------4---4-------4---2---4---------------------------|

G|--------------------------------------------------------------------------------|
D|2-------2-------1-------1-------------------------------------------------------| fades out here.
A|--------------------------------4-------4-------2-------2---2---0-------0-------|
E|--------------------------------------------------------------------------------|
Suggest correction
Creating personal tab
Creating personal tab
You can edit any tab online and save it as your Personal.

You can edit, replace or remove any tab part or add personal notes – all changes will be seen only by you.

Personal tabs can be accessed anytime from any device, even offline.
Learn more »
Give kudos to tab author, rate the tab!
1 2 3 4 5
comments
print report bad tab
guest
You may want to rate the tab now too:
select rating
Wanna post a correction for this tab? Suggest correction