Oops, an error
Loading. Please wait.

Whatcha Gonna Do Bass Tab

13 views 1 this week
no commentswrite comment
1 2 3 4 5
3 more votes to show rating
add to favorites
launch autoscroll
font size
0
reset
guitar tuner
Autoscroll
slow
fast
+/-
esc
set tempo
stop
Help us to improve Ultimate-Guitar.com Take our survey!
×
Author
Difficulty
novice
Tabbed by: 6METAL6BASSIST6
E-mail: petergriffinav@gmail.com

Tuning: EADG

0:12

G|------------------------------------------------------------------------------------------------|
D|------------------------------------------------------------------------------------------------|
A|------------------------5-----5-----------------3-----------------------------------------------|
E|3-----------------------------------------------------------------------3-----3-----------------|

G|------------------------------------------------------------------------------------------------|
D|------------------------------------------------------------------------------------------------|
A|------------------------5-----5-----------------3---------------------5-------------------------|
E|3-----------------------------------------------------------------------3-----3-----------------|

0:23

G|------------------------------------------------------------------------------------------------|
D|------------------------------------------------------------------------------------------------|
A|------------------------5-----5-----------------3-----3-----------------------------------------|
E|3-----------------------------------------------------------------------3-----3-----------------|

G|------------------------------------------------------------------------------------------------|
D|------------------------------------------------------------------------------------------------|
A|------------------------5-----5-----------------3-----5-----------------------------------5-----|
E|3-----------------------------------------------------------------------3-----3-----------------|

0:34

G|------------------------------------------------------------------------------------------------|
D|------------------------------------------------------------------------------------------------| x2
A|------------------------5-----------5-----------3-----------3-----------------------------------|
E|3-----------3-----------------------------------------------------------3-----------3-----------|

0:45

G|------------------------------------------------------------------------------------------------|
D|------------------------------------------------------------------------------------------------|
A|------------------------5-----5-----------4-----3---------------------5-----------------------5-|
E|3-----------------------------------------------------------------------3-----3-----------------|

G|------------------------------------------------------------------------------------------------|
D|------------------------------------------------------------------------------------------------|
A|------------------------5-----5-----------------3-----------------------------2-----3---4-----5-|
E|3---------------------3-------------------------------------------------3-----------------------|

0:56

G|------------------------------------------------------------------------------------------------|
D|------------------------------------------------------------------------------------------------|
A|------------------------5-----5-----5-----4-----3---------------------------2-------3-----5-----|
E|3---------------------3-----------------------------0-------1-----2-----3-----------------------|

G|------------------------------------------------------------------------------------------------|
D|------------------------------------------------------------------------5-----------------------|
A|------------------------5-----5-----------------3---------------------3-------------4-----5-----|
E|3-----------------------------------------------------------------------------------------------|

1:08

G|------------------------------------------------------------------------------------------------|
D|------------------------------------------------------------------------------------------------|
A|------------------------5-----5-----------------3-----------------------------------------------|
E|3---------------------3-------------------------------------------------3-----------------------|

G|------------------------------------------------------------------------------------------------|
D|------------------------------------------------------------------------------------------------|
A|------------------------5-----5-----------------3-----------------------------------------------|
E|3-----------------------------------------------------------------------3-----------------------|

1:18

G|------------------------------------------------------------------------------------------------|
D|------------------------------------------------------------------------------------------------|
A|------------------------5-----5-----------------3-----3-----------------------------------------|
E|3-----------------------------------------------------------------------3-----3-----------------|

G|------------------------------------------------------------------------------------------------|
D|------------------------------------------------------------------------------------------------|
A|------------------------5-----5-----------------3-----5-----------------------------------------|
E|3-----------------------------------------------------------------------3-----------------------|

1:29

G|------------------------------------------------------------------------------------------------|
D|------------------------------------------------------------------------5-----------------------|
A|------------------------5-----------5-----------3-----------3---------------2-------3-----4-----|
E|3-----------3---------3-------------------------------------------------------------------------|

G|------------------------------------------------------------------------------------------------|
D|5-----------------------------------------------------------------------5-----------5-----------|
A|------------------------5-----------5-----4-----3-----------3-----------------------------5-----|
E|------------3-----------------------------------------------------------------------------------|

1:40

G|------------------------------------------------------------------------------------------------|
D|------------------------------------------------------------------------------------------------|
A|------------------------5-----------5-----------3-----------3-----------------------------------|
E|3-----------3-----------------------------------------------------------3-----------3-----------|

G|------------------------------------------------------------------------------------------------|
D|------------------------------------------------------------------------------5-----3-----------|
A|------------------------5-----------5-----4-----3-----------3-----------------------------5-----|
E|3-----------3-----------------------------------------------------------3-----------------------|

1:51

G|------------------------------------------------------------------------------------------------|
D|------------------------------------------------------------------------------------5-----------|
A|------------------------5-----------5-----4-----3-----------3-----------------------------------|
E|3-----------3-----------------------------------------------------------3-----3-----------------|

G|------------------------------------------------------------------------------------------------|
D|------------------------------------------------------------------------5-----------------------|
A|------------------------5-----------5-----4-----3-----------3---------------2-------3-----5-----|
E|3-----------3-----------------------------------------------------------------------------------|

2:02

G|------------------------------------------------------------------------------------------------|
D|------------------------------------------------------------------------------------4---3-------|
A|------2-----3---4-----4-5---5-------------------3-----3-----3---5-----5-------------------5-----|
E|3-----------------------------2-----3---5-------------------------------3-----------------------|

G|------------------------------------------------------------------------------------------------|
D|------------------------------------------------------------------------------------------------|
A|------2-----3---4-----4-5-----------------------3-----------------------3-----3-----3-----------|
E|3-----------------------------2-----3---5-----------------------------3-----------------------3-|

G|------------------------------------------------------------------------------------------------|
D|------------------------------------------------------------------------------------------------|
A|3-----3-----------------3-----------------------------------------------------------------------|
E|------------0-----3-----------0-----1-----------3-----------------------------------------------|
Suggest correction
Give kudos to tab author, rate the tab!
1 2 3 4 5
comments
print report bad tab
guest
You may want to rate the tab now too:
select rating
Wanna post a correction for this tab? Suggest correction