Oops, an error
Loading. Please wait.

Arigatou Tab

version 1
version 1

Whole song

Interactive

19,296 views 18 this week
2 commentsread comments
1 2 3 4 5
please rate
add to favorites
launch autoscroll
font size
0
reset
how to read this tab
guitar tuner
Autoscroll
slow
fast
+/-
esc
set tempo
stop
Help us to improve Ultimate-Guitar.com Take our survey!
×
Author
ありがとう Capo2

*
----------------------------------------------------------------------------|
-4-5-5s7--4-5-5s7--4-5-5s7--5-4-4s5-4----4s5---4s5---4s5--4-4s8-8-8-8-8-5-4-|
----------------------------------------6-----6-----6----6------------------|
----------------------------------------------------------------------------|
----------------------------------------------------------------------------|
----------------------------------------------------------------------------|

-4-5-5s7--4-5-5s7--5-4-4s5—4--4s5-4------|
-----------------------------------6-4-4-|
-----------------------------------------|
-----------------------------------------|
-----------------------------------------|
-----------------------------------------|


**
----4-6-6s7--6------------------------------------------|
-5s7-----------7-7s9-7----------4-4s5--5--5s7--5-4--4-4-|
-----------------------8p6-4-4-6-------------------6----|
--------------------------------------------------------|
--------------------------------------------------------|
--------------------------------------------------------|

----4-6-6s7---6--------9s11-9-7---7-9-11-11--—11s12-11-9|
-5s7-----------7-7s9s7----------------------------------|
--------------------------------------------------------|
--------------------------------------------------------|
--------------------------------------------------------|
--------------------------------------------------------|


***
------7-9-9s11------7-7s9-----6-6s7--6-7s9-7----------|
--9s11----------9-11-------7-9------------------------|
------------------------------------------------------|
------------------------------------------------------|
------------------------------------------------------|
------------------------------------------------------|

------7-9-9s11------7-7s9-----6-6s7--6----------------|
--9s11----------9-11-------7-9--------7-7-------------|
------------------------------------------------------|
------------------------------------------------------|
------------------------------------------------------|
------------------------------------------------------|


------7-9-9s11------7-7s9-----6-6s7--6-7s9-7---6-------7-7-----7-7--6----|
-9s11----------9-11-------7-9----------------------5-4-----5-4-----------|
-------------------------------------------------------------------------|
-------------------------------------------------------------------------|
-------------------------------------------------------------------------|
-------------------------------------------------------------------------|


Repeat : *

****
-------------------------------------------------------|
-12--11--9----9----------------------------------------|
----------11---11--9--8--9--11-------8-----------------|
-------------------------------9--11---11--9--9--------|
-------------------------------------------------------|X3
-------------------------------------------------------|


------------------------------------7--7s9--7---------|
-12--11--9----9----------------9--11------------------|
-----------11---11--9--8--9--11-----------------------|
------------------------------------------------------|
------------------------------------------------------|
------------------------------------------------------|


-6h7p6-------9s11--9s7-------------------------7p6-7p6-9-9s11-9s7-----7-7--|
------7s9-9-----------5s7-5-4-5-4-0---------7s9--------------------7s9-----|
--------------------------------------4-4----------------------------------|
-----------------------------------4s6-------------------------------------|
---------------------------------------------------------------------------|
---------------------------------------------------------------------------|

---------------------4----4-5--4-6-6s7---5-7-7s9---7-9-9s11-9-|
----4-5--4-5-5s7--5-7-7---------------------------------------|
-4s6----------------------------------------------------------|
--------------------------------------------------------------|
--------------------------------------------------------------|
--------------------------------------------------------------|

-9-11-12----11-12—12s14-----|
----------------------------|
----------------------------|
----------------------------|
----------------------------|
----------------------------|

Repeat :  **/***/*
Suggest correction
Give kudos to tab author, rate the tab!
1 2 3 4 5
comments
print report bad tab
2 comments total.
0 reply
izzizz 30 wrote on March 29 2010, 11:27 am

umm, does the rhythm guitar use a capo? if so, which fret?
i'm really having a hard time trying to transcribe the rhtythm part =/

0 reply
Thanakorn 30 wrote on July 3 2010, 05:56 pm

For rhythm guitar, try to use 1st fret capo..

I tabbed this when i play another depapepe song that use 2nd Fret.

guest
You may want to rate the tab now too:
select rating
Please do not post tabs as comments. Select "correction" instead!