Oops, an error
Loading. Please wait.

Summer Parade Tab

version 1
version 1

Whole song

Interactive

39,121 views 6 this week
3 commentsread comments
1 2 3 4 5
accurate
x 3
add to favorites
launch autoscroll
font size
0
reset
how to read this tab
guitar tuner
Autoscroll
slow
fast
+/-
esc
set tempo
stop
Help us to improve Ultimate-Guitar.com Take our survey!
×
Author
Difficulty
advanced
DEPAPEPE- SUMMER PARADE GUITAR TABULATURES

Opening
=======
Chords (Plucking):
|-4--x--x--x--0---------------------------------|
|-5--4--4--2--0---------------------------------|
|-6--4--4--2--2---------------------------------|
|-6--4--3--2--1---------------------------------|
|-x--x--4--x--2---------------------------------|
|-5--4--x--2--0---------------------------------|

Lead:
|--------------------------------------------------------|
|---------------------------10s12-10-9-10-12-7s9---------|
|--------8-9-----8-9----8-9----------------------9-----9-|
|-11--11-----s11-----s9----------------------------s11---|
|---11---------------------------------------------------|
|--------------------------------------------------------|

Intro
=======
Chords:
|-x-----x-----x-----0-| |-0-----x-----0-|
|-5-----4-----2-----0-| |-5-----4-----2-|
|-6-----x-----x-----1-| |-6-----x-----2-|
|-7-----6-----4-----2-| |-7-----6-----1-|
|-7-----6-----4-----2-| |-7-----6-----2-|
|-5-----4-----2-----0-| |-5-----4-----0-|

Lead:
|-----0------------0--------------0--------------0-----------0------14|
|---0-----0------0------0-------0------0-------0------0----0----0-----|
|-9-----9---9s11-----11---11s13-----13---13s14-----14---13---13---11--|
|---------------------------------------------------------------------|
|---------------------------------------------------------------------|
|---------------------------------------------------------------------|

|---14----12---|
|-12---12------|
|--------------|
|--------------|
|--------------|
|--------------|















Verse
=======
Chords:
|-7-----4-----9-----7-|
|-9-----5-----10----7-|
|-8-----4-----9-----8-|   (Repeat x2)
|-9-----6-----11----7-|
|-7-----4-----9-----9-|
|-0-----x-----x-----7-|

Lead:
|-0--0--0--0--0--0--0--|
|-0--0--0--0--0--0--0--|
|-8--9--8--9--9s-12-9--|  (Repeat x2) 
|-9--12-9--12-12s14-12-|
|-x--x--x--x-----------|
|-x--x--x--x-----------|




|-x--------------------------------------------------------------|
|-10s13-10-9-10-10s12-10-9-10---9---------10---------------------|
|-11s13-11-9-11-11s13-11-9-11-9---11-11s13---13-11-8*9*9-9-------|
|-x--------------------------------------------------11----------|
|-x--------------------------------------------------------------|
|-x--------------------------------------------------------------|

Brigde
=======
Chords/Lead:
|-4-------------x------------x~9--7---------x~11~-|
|-5~10s12-10-9--4~5-5s7-5-4--2~10-9-10-9-7--4~12~-|
|-6~11s13-11-9--4~6-6s8-6-4--2------9--9-8--4~11~-|
|-6-------------4------------2--------------3-----|
|-x-------------x------------x--------------4-----|
|-5-------------4------------2--------------x-----|
                             ==
|-4-------------x------------x--x--0--0-|
|-5~10s12-10-9--4~5-5s7-5-4--2--4--2--2-|
|-6~11s13-11-9--4~6-6s8-6-4--2--4--2--2-|
|-6-------------4------------2--4--2--1-|
|-x-------------x------------x--x--0--2-|
|-5-------------4------------2--4--x--x-|



Lead: (Starts at the chord marked with " == " )
|----------------------------------|
|--------------------9-10~---------|
|----8-9-8-9-11-9-11---------------|
|-11-------------------------------|
|----------------------------------|
|----------------------------------|



Chorus
=======
Chords:
                 = : He sorts of leads when he reaches this chord
|-4--x--x--x--x--0~10--x-| |-4--x--x--x--x--0~10--X-|
|-5--4--4--2--2--0-----7-| |-5--4--4--2--2--0-----2-|
|-6--4--4--2--2--1~7---7-| |-6--4--4--2--2--1~7---2-|
|-6--4--3--2--1--2-----6-| |-6--4--3--2--1--2-----1-|
|-x--x--4--x--2--2-----7-| |-x--x--4--x--2--2-----2-|
|-5--4--x--2--x--0-----x-| |-5--4--x--2--x--0-----x-|

Lead:
|-9-11-12------x--11-12--x--x--x-x-x-x-x-x-x--x--x--x--x--|
|-x-x--x-------12-x--x---12-10-9-5-7-9-7-9-10-12-14-12-10-|
|-6-8--9--(x2)-x--8--9---x--x--x-x-x-x-x-x-x--x--x--x--x--|
|-x-x----------9--x--x---9--7--6-2-4-6-4-6-7--9--11-9--7--|
|-x-x----------x--x--x---x--x--x-x-x-x-x-x-x--x--x--x--x--|
|-x-x----------x--x--x---x--x--x-x-x-x-x-x-x--x--x--x--x--|






|-9-11-12------x--11-12-19-17-16-12-----------------------|
|-x-x--x-------12-x--x--x--x--x--x--------------9---------|
|-6-8--9--(x2)-x--8--9--16-14-13-9-----9-9-11-9---9-11----|
|-x-x--x-------9--x--x--x--x--x--x-s11--------------------|
|-x-x--x-------x--x--x--x--x--x--x------------------------|
|-x-x--x-------x--x--x--x--x--x--x------------------------|

(Verse)
(Bridge)
(Chorus) x3

Suggest correction
Give kudos to tab author, rate the tab!
1 2 3 4 5
comments
print report bad tab
3 comments total.
0 reply
x5P1D3Rx 10 wrote on December 26 2006, 12:23 am

Wow, its really cool ur tab =) I Tested it and its ok nothing bd in it, good job xD

0 reply
magnus21 31 wrote on December 27 2006, 12:34 am

thanks... i can't do it w/o my japanese friend. :)

0 reply
kmtsj325 10 wrote on February 6 2007, 05:33 pm

ive been looking everywhere for this tab.. thanks and keep em coming

guest
You may want to rate the tab now too:
select rating
Please do not post tabs as comments. Select "correction" instead!