Oops, an error
Loading. Please wait.
We have an official Wedding Bell tab made by UG professional guitarists. Check out the tab »
×
190 views 12 this week
no commentswrite comment
1 2 3 4 5
3 more votes to show rating
add to favorites
×
Save as Personal and add changes to this tab that will be seen only by you. Learn more ›
×
You can save this tab as Personal to edit and correct it or add notes. All changes will be seen only by you. Learn more »
launch autoscroll
font size
0
reset
how to read this tab
guitar tuner
edit
Autoscroll
slow
fast
+/-
esc
set tempo
stop
DEPAPEPE - WEDDING BELL

(From the 2005 Album LET'S GO!!!)

Words and Music by Miura Takuya & Tokuoka Yoshinari

Transcribed by Slowhand


Gtr I (E A D G B E) - 'Miura Takuya - Acoustic Guitar w/ capo 2nd fret'
Gtr II (E A D G B E) - 'Tokuoka Yoshinari - Acoustic Guitar w/ capo 2nd fret'


  Q=65
  D       G         Em7     A7suA7      F#m7      Bm7       Em7     A7suA7
 4/4
  Gtr I (Ac. Gtr. w/ capo 2nd fret)
  W                 H       Q   E  E     W                  H       Q   E E
|-----------------|-------------------|-------------------|-----------------||
|-----------------|-------------------|-------------------|-----------------||
|-----------------|-------------------|-<7>---------------|---------------2-||
|-----------------|---------------<7>-|-------------------|-----------------||
|-----------------|-------------------|-------------------|-----------------||
|-----------------|-------------------|-------------------|-----------------||
|
| Gtr II (Ac. Gtr. w/ capo 2nd fret)
| E E E E E E E E   E E E E E E E  E     E  E E E E E E E   E E E E E E E E
|-2-----0---------|-------------------|-------------------|-----------------||
|-3---3---3---3---|-3-----3-3---2--0--|--2------2-3-----3-|-3-----3-3---2---||
|---2-----0---0---|-0---0---0---------|-------2---2---2---|-0---0---0---0-2-||
|-2---------0---0-|---0-------2-------|-----2-------4-----|---0-------2---2-||
|-----------------|---------0---0-----|-----------2-------|---------0---0---||
|---------3---2---|-0-----------------|--2----------------|-0---------------||


    D
  a E  S S +E  S S +E  S S +E  S S
|----------------------------------|
|-3s5--3-3-(3)-2-2-(2)-------------|
|----------------------4-4-(4)---2-|
|------------------------------4---|
|----------------------------------|
|----------------------------------|
|
|   Q.         E    E  E    E  E
|---2---------------2--------------|
|---3-----------------------3------|
|--------------2-------2-----------|
|---0------------------------------|
|----------------------------------|
|------------------------------0---|


  F#m7                  Bm7
  +H      +Q.     E   a E  S S +E  S S +E  S S +E  S S
|-------------------|--------------------------------2-|
|-------------------|-3s5--3-3-(3)-2-2-(2)-3-3-(3)-5---|
|-(2)-----(2)-----2-|----------------------------------|
|-------------------|----------------------------------|
|-------------------|----------------------------------|
|-------------------|----------------------------------|
|
|  Q.   E  E  E E E     Q.         E    E  E    E  E
|-------------------|----------------------------------|
|--2-------2--------|---3---------------3--------------|
|--2------------2---|---2-----------------------2------|
|-------2-----2-----|--------------4-------4-----------|
|-----------------0-|---2------------------------------|
|--2----------------|------------------------------0---|


  F#m7              Em7       A7              F#m7        Bm7
  +H.         E E   E E E S S +Q    +E  S S   S S E E S S +Q..       S
|-(2)-------------|-------------------------|--------------------------|
|-----------------|-------3-2-(2)---(2)-----|--------------------------|
|-----------------|-------------------------|-0h2-2-2-4--------------2-|
|-------------2-4-|-5-5-5---------------4-5-|-----------0-(0)----------|
|-----------------|-------------------------|--------------------------|
|-----------------|-------------------------|--------------------------|
|
|  Q.   E E E E E   E E E E    E  E  E  E     E   E E S S  E   E E E
|-----------------|-------------------------|--------------------------|
|--2------2-------|-0---0------2-----2------|-2-----2------3-----3-----|
|--2----------2---|-0---0------0-----0------|-2-----2------2-----2-----|
|-------2---2-2---|---0-----------2---------|-----2---2-0------4-------|
|-----------------|------------0------------|--------------2-----------|
|--2------------0-|-0-----0-------------0---|-2--------------------0---|


  Em7                             A7sus4        A7
  E S S +E  S S +E  S S +E.   S   E S S +E  S S +E  S S +E  E
|-------------------------------|-----------------------------||
|-------------------------------|-----------------------------||
|-2-0-0-(0)-------------------2-|-2-0-0-(0)-----------------2-||
|-----------4-4-(4)-2-2-(2)-----|-----------4-4-(4)-2-2-(2)---||
|-------------------------------|-----------------------------||
|-------------------------------|-----------------------------||
|
| E E    E  E    E  E    E  E     E E    E  E    E  E    E  E
|-------------------------------|-----------------------------||
|-0------0-------0-------0------|-3------3-------2-------2----||
|-0------0-------0-------0------|-0------0-------0-------0----||
|---0---------------0-----------|---2---------------2---------||
|---------------------------0---|-0---------0----0----------0-||
|-0---------0----0--------------|-----------------------------||


    D
  a E S S +E  S S +E  S S +E  S S
|---------------------------------|
|-3s5-3-3-(3)-2-2-(2)-0-0-(0)-----|
|-------------------------------2-|
|-----------------------------4---|
|---------------------------------|
|---------------------------------|
|
|   E E    E  E    E  E    E  E
|---2------2-------2-------2------|
|---3------3-------3-------3------|
|-----2---------------2-----------|
|---0---------0----0--------------|
|---------------------------------|
|-----------------------------0---|


  F#m7                    Bm7                             F#m7
  +H        +Q.     E   a E S S +E  S S +E  S S +E  S S   +H.           E E
|---------------------|-------------------------------2-|-(2)---------------|
|---------------------|-3s5-3-3-(3)-2-2-(2)-3-3-(3)-5---|-------------------|
|-(2)-------(2)-----2-|---------------------------------|-------------------|
|---------------------|---------------------------------|---------------2-4-|
|---------------------|---------------------------------|-------------------|
|---------------------|---------------------------------|-------------------|
|
|  E  E E E  E  E E E     E E    E  E    E  E    E  E      E  E E E E E E E
|---------------------|---------------------------------|-------------------|
|--2----2----2----2---|---3------3-------3-------3------|--2----2---2---2---|
|--2----2----2----2---|---2------2-------2-------2------|--2----2---2---2---|
|-----2---------2-----|-----4---------------4-----------|-----2-------2-----|
|---------------------|---2---------2----2----------0---|-------------------|
|--2------2--2------0-|---------------------------------|--2------2-2-----0-|


  Em7       A7            F#m7        Bm7
  E E E S S +Q.     S S   S S E E S S +H
|-----------------------|-----------------------|
|-------3-2-(2)---------|-----------------------|
|---------------------0-|-0h2-2-2-4-------------|
|-5-5-5-------------4---|-----------0-(0)-------|
|-----------------------|-----------------------|
|-----------------------|-----------------------|
|
| E E E E    E  E E E     E   E E E    E  E E E
|-----------------------|-----------------------|
|-0---0------2----2-----|-2-----2------3----3---|
|-0---0------0----0-----|-2-----2------2----2---|
|---0-----------2-------|-----2-----------4-----|
|-------0----0----------|--------------2--------|
|-0-----------------0---|-2-------0-----------0-|


  Em7     A7suA7      D         D7
  E E E E E E E S S   +W
|-------------------|--------------------||
|-------------------|--------------------||
|-------0-----------|--------------------||
|-----0---4-2-0---0-|-(0)----------------||
|---2-----------4---|--------------------||
|-------------------|--------------------||
|
| E E E E E E E E      E  E E E E E E E
|-------------------|--2----2---2---2----||
|-0---0---3---2-----|--3----3---1---1----||
|-0---0---0---0-----|-----2-------2------||
|---0-------2---2---|--0------0-0-----0--||
|-------0-0---0-----|--------------------||
|-0-----------------|--------------------||


  G                       D
  Q    Q     Q     Q       W
|-----------------------|------------------|
|-----<7>---------------|------------------|
|-----------<7>---------|-<7>--------------|
|-----------------<7>---|------------------|
|-----------------------|------------------|
|-----------------------|------------------|
|
| E E  E  E  E  E  E  E    E  E E E E E Q
|-----------------------|--2--------2-3-5--|
|-0----------0----------|--3----3---3-5-7--|
|-0----0-----------0----|-----2---2--------|
|---0-----0-----0-----0-|--0---------------|
|-----------------------|------------------|
|-3---------------------|------------------|


  G                       D
  Q    Q     Q     Q       W
|-----------------------|-------------------|
|-----<7>---------------|-------------------|
|-----------<7>---------|-<7>---------------|
|-----------------<7>---|-------------------|
|-----------------------|-------------------|
|-----------------------|-------------------|
|
| E E  E  E  E  E  E  E    E  E E E E E Q
|-----------------------|--2--------5-3-2---|
|-0----------0----------|--3----3---7-5-3---|
|-0----0-----------0----|-----2---2---------|
|---0-----0-----0-----0-|--0----------------|
|-----------------------|-------------------|
|-3---------------------|-------------------|


  G       A   G     F#m7    Bm7       Em7               A7sus4  A7
  E E Q   E E Q     E E E E E E Q     E E E E E E E E   E E E E E E E E
|-----------------|-----------------|-----------------|------------------||
|-----------------|-----------------|-----------------|------------------||
|-----------------|-----------------|-------------6-7-|-----------6-7-9--||
|-----------------|-----------------|-------5-7-9-----|-----5-7-9--------||
|-2-4-5---4-5-7---|-4-5-7-7-5-7-9---|-5-7-9-----------|-7-9--------------||
|-----------------|-----------------|-----------------|------------------||
|
| E E E E E E E E   E E E E E E E E   E E E E E E E E   E E E E E E E E
|-----------------|-----------------|-----------------|------------------||
|-0-------2---0---|-2---2---3---3---|-3---3---3---3---|-3---3---2-----2--||
|-0---0---2---0---|-2---2---2---2---|-0---0---0---0---|-0---0---0-2-4----||
|---0-------2---0-|---2-------4-----|---0---0---------|---2--------------||
|---------0-------|---------2-------|---------------0-|-0-----0-0--------||
|-3-----3-----3---|-2-----2-------0-|-0---------0-----|------------------||


  D                         F#m7                  Fm7
  Q   E S S  Q.     S S   a  E  E  E  S  S  +Q    E E
|-----------------------|----------------9--(9)---7-9-|
|-7---7-8-8s10------7-8-|-8s10-10-10-12-10-(10)-------|
|-7---7-9-9s11------7-9-|-9s11-11-11-12---------------|
|-----------------------|-----------------------------|
|-----------------------|-----------------------------|
|-----------------------|-----------------------------|
|
| E E E E    E  E E E        E  E  E  E      E  E Q
|-2---2------2----2-----|-----------------------------|
|-3---3------3----3-----|----2-----2---------2----1---|
|---0-----------0-------|----2-----2---------2----1---|
|-0-----0----0----------|-------2---------------2-----|
|-----------------------|-----------------------------|
|-------------------0---|----2--------2------2----1---|


  Em7             A7
  S  S  E  E S  S  E  E E  E
|-9h10-10-10-9-10s12-10-9-----|
|-------------------------12--|
|-----------------------------|
|-----------------------------|
|-----------------------------|
|-----------------------------|
|
| E     E  E E     E  E E  E
|-----------------------------|
|-0--------0-------2----2-----|
|-0--------0-------0----0-----|
|-------0-------------2-------|
|------------------0----------|
|-0----------0-------------0--|


  F#m7           Bm7          Em7             A7
                   ~~~~
   E  E  E  S  S  +Q    E E   S  S  E  E S  S  E  E E E
|-----------------------7-9-|-9h10-10-10-9-10s12-10-9-7-|
|-10-10-10-12-10-(10)-------|---------------------------|
|---------------------------|---------------------------|
|---------------------------|---------------------------|
|---------------------------|---------------------------|
|---------------------------|---------------------------|
|
|  E  E  E  E      E  E E E   E     E  E E     E  E E E
|---------------------------|---------------------------|
|--2-----2---------3----3---|-0--------0-------2----2---|
|--2-----2---------2----2---|-0--------0-------0----0---|
|-----2---------------4-----|-------0-------------2-----|
|------------------2--------|------------0-----0--------|
|--2--------0-------------0-|-0-----------------------0-|


  F#m7         Bm7          Em7       A7sus4A7
                 ~~~~
   Q   E.    S  +H          E E E S S +E  E E S S
|------9----10-(10)-------|-----------------------|
|-10----------------------|-------8-7-(7)-5-------|
|-------------------------|-----7-----------7-6-7-|
|-------------------------|---9-------------------|
|-------------------------|-----------------------|
|-------------------------|-----------------------|
|
|  E E E  E      E  E E E   E E E E    E  E E E
|-------------------------|-----------------------|
|--2---2---------3----3---|-0---0------3----2-----|
|--2---2---------2----2---|-0---0------0----0-----|
|----2--------------4-----|---0-----------2---2---|
|----------------2--------|-------0----0----0-----|
|--2------0-------------0-|-0---------------------|


  D                     D                               F#m7
  +H.          E E    a E S S +E  S S +E  S S +E  S S   +H        +Q.     E
|------------------||---------------------------------|---------------------|
|------------------||-3s5-3-3-(3)-2-2-(2)-------------|---------------------|
|-(7)------------2-||---------------------4-4-(4)---2-|-(2)-------(2)-----2-|
|------------------||-----------------------------4---|---------------------|
|------------------||---------------------------------|---------------------|
|------------------||---------------------------------|---------------------|
|
|  E  E E E H           E E    E  E    E  E    E  E      E  E E E  E  E E E
|--2--------2------||---2------2-------2-------2------|---------------------|
|--3----3----------||---3------3-------3-------3------|--2----2----2----2---|
|-----2---2--------||-----2---------------2-----------|--2----2----2----2---|
|--0---------------||---0---------0----0----------0---|-----2---------2-----|
|------------------||---------------------------------|---------------------|
|------------------||---------------------------------|--2------2--2------2-|


    Bm7
  a E S S +E  S S +E  S S +E  S S
|-------------------------------2-|
|-3s5-3-3-(3)-2-2-(2)-3-3-(3)-5---|
|---------------------------------|
|---------------------------------|
|---------------------------------|
|---------------------------------|
|
|   E E    E  E    E  E    E  E
|---------------------------------|
|---3------3-------3-------3------|
|---2------2-------2-------2------|
|-----4---------------4-----------|
|---2---------2----2--------------|
|-----------------------------0---|


  F#m7                Em7
  +H.           E E   E E E S S +Q    +E  S S
|-(2)---------------|-------------------------|
|-------------------|-------3-2-(2)---(2)-----|
|-------------------|-------------------------|
|---------------2-4-|-5-5-5---------------4-5-|
|-------------------|-------------------------|
|-------------------|-------------------------|
|
|  E  E E E E E E E   E E E E    E  E  E  E
|-------------------|-------------------------|
|--2----2---2---2---|-0---0------2-----2------|
|--2----2---2---2---|-0---0------0-----0------|
|-----2-------2-----|---0-----------2---------|
|-------------------|-------------------------|
|--2------2-2-----0-|-0-----0----5--------0---|


  F#m7        Bm7         Em7       A7sus4A7
  S S E E S S +H          E E E S S +E  E E S S
|-----------------------|-----------------------|
|-----------------------|-----------------------|
|-0h2-2-2-4-------------|-------0---------------|
|-----------0-(0)-------|-----0---4-(4)-2-0---0-|
|-----------------------|---2---------------4---|
|-----------------------|-----------------------|
|
| E   E E E    E  E E E   E E E E    E  E E E
|-----------------------|-----------------------|
|-2-----2------3----3---|-0---0------3----2-----|
|-2-----2------2----2---|-0---0------0----0-----|
|-----2-----------4-----|---0-----------2---2---|
|--------------2--------|------------0----0-----|
|-2-------0-----------0-|-0-----0---------------|


  D         D7         G
  +W                   Q    Q     Q     Q
|-------------------||-------------------------|
|-------------------||-----<7>-----------------|
|-------------------||-----------<7>-----------|
|-(0)---------------||-----------------<7>-----|
|-------------------||-------------------------|
|-------------------||-------------------------|
|
|  E  E E E E E E E    E E  E  E  E  E  E  E
|--2----2---2---2---||-------------------------|
|--3----3---1---1---||------------0------------|
|-----2-------2-----||------0-----------0------|
|--0------0-0-----0-||---0-----0-----0-----0---|
|-------------------||-------------------------|
|-------------------||-3-----------------------|


  D                  G
   W                 Q    Q     Q     Q
|------------------|-----------------------|
|------------------|-----<7>---------------|
|-<7>--------------|-----------<7>---------|
|------------------|-----------------<7>---|
|------------------|-----------------------|
|------------------|-----------------------|
|
|  E  E E E E E Q    E E  E  E  E  E  E  E
|--2--------2-3-5--|-----------------------|
|--3----3---3-5-7--|------------0----------|
|-----2---2--------|------0-----------0----|
|--0---------------|---0-----0-----0-----0-|
|------------------|-----------------------|
|------------------|-3---------------------|


  D                  G       A   G
   W                 E E Q   E E Q
|------------------|------------------|
|------------------|------------------|
|-<7>--------------|------------------|
|------------------|------------------|
|------------------|-2-4-5---4-5-7----|
|------------------|------------------|
|
|  E  E E E E E Q    E E E E E E E E
|--2--------5-3-2--|------------------|
|--3----3---7-5-3--|-0-------2---0----|
|-----2---2--------|-0---0---2---0----|
|--0---------------|---0-------2---0--|
|------------------|---------0--------|
|------------------|-3-----3-----3----|


                                      ritardando Q=40
  F#m7    Bm7       Em7
  E E E E E E Q     E E E E E E E E   S S S S S S S S S S S S S S S S
|-----------------|-----------------|---------------------------------||
|-----------------|-----------------|---------------------------------||
|-----------------|-------------6-7-|---------------------6-6-7-7-9-9-||
|-----------------|-------5-7-9-----|---------5-5-7-7-9-9-------------||
|-4-5-7-7-5-7-9---|-5-7-9-----------|-7-7-9-9-------------------------||
|-----------------|-----------------|---------------------------------||
|
| E E E E E E E E   E E E E E E E E   S S S S S S S S S S S S S S S S
|-----------------|-----------------|-------------------------2-2-3-3-||
|-2---2---3---3---|-3---3---3---3---|-------------2-2-3-3-5-5---------||
|-2---2---2---2---|-0---0---0---0---|---------4-4---------------------||
|---2-------4-----|---0-------0-----|-5-5-7-7-------------------------||
|---------2-------|---------------0-|-0-------------------------------||
|-2-----2-------0-|-0-----0-0-------|---------------------------------||


  a tempo Q=65
  D                         F#m7                 Fm7
  Q   E S S  Q.     S S   a  E  E  E S  S  +Q    E E
|-----------------------|------------7--9--(9)---7-9-|
|-7---7-8-8s10------7-8-|-8s10-10-10-8-10-(10)-------|
|-7---7-9-9s11------7-9-|-9s11-11-11-----------------|
|-----------------------|----------------------------|
|-----------------------|----------------------------|
|-----------------------|----------------------------|
|
| E E E E    E  E E E        E  E  E E      E  E Q
|-2---2------2----2-----|----------------------------|
|-3---3------3----3-----|----2-----2--------2----1---|
|---2-----------2-------|----2-----2--------2----1---|
|-0-----0----0----------|-------2--------------2-----|
|-----------------------|----------------------------|
|-------------------0---|----2-------2------2----1---|


  Em7             A7
  S  S  E  E S  S  E  E E  E
|-9h10-10-10-9-10s12-10-9-----|
|-------------------------12--|
|-----------------------------|
|-----------------------------|
|-----------------------------|
|-----------------------------|
|
| E     E  E E     E  E E  E
|-----------------------------|
|-0--------0-------2----2-----|
|-0--------0-------0----0-----|
|-------0-------------2-------|
|------------------0----------|
|-0----------0-------------0--|


  A7             Bm7          Em7             A7
                   ~~~~
   E  E  E  S  S  +Q    E E   S  S  E  E S  S  E  E E  E
|-----------------------7-9-|-9h10-10-10-9-10s12-10-9----|
|-10-10-10-12-10-(10)-------|-------------------------12-|
|---------------------------|----------------------------|
|---------------------------|----------------------------|
|---------------------------|----------------------------|
|---------------------------|----------------------------|
|
|  E  E  E  E      E  E E E   E     E  E E     E  E E  E
|---------------------------|----------------------------|
|--2-----2---------3----3---|-0--------0-------2----2----|
|--2-----2---------2----2---|-0--------0-------0----0----|
|-----2---------------4-----|-------0-------------2------|
|------------------2--------|------------0-----0---------|
|--2--------0-------------0-|-0------------------------0-|


  F#m7         Bm7
   ~~            ~~~~
   Q   E.    S  +Q     +E.    S
|------9----10-(10)---(10)------|
|-10-------------------------10-|
|-------------------------------|
|-------------------------------|
|-------------------------------|
|-------------------------------|
|
|  E E E  E      E  E   E  E
|-------------------------------|
|--2---2---------3------3-------|
|--2---2---------2------2-------|
|----2--------------4-----------|
|----------------2--------------|
|--2------0----------------0----|


  Em7
   E S S +E  S S +E  S S +E.    S
|---------------------------------|
|-10-8-8-(8)-7-7-(7)-----------10-|
|--------------------9-9-(9)------|
|---------------------------------|
|---------------------------------|
|---------------------------------|
|
|  E E    E  E    E  E    E  E
|---------------------------------|
|--3------3-------3-------3-------|
|--0------0-------0-------0-------|
|----0---------------0------------|
|----------------------------0----|
|--0---------0----0---------------|


  A7sus4         A7    E°/G   D
   E S S +E  S S +E  E E E    Q   E S S  Q.     S S
|--------------------------||-----------------------|
|-10-8-8-(8)-7-7-(7)-------||-7---7-8-8s10------7-8-|
|--------------------9-7-9-||-7---7-9-9s11------7-9-|
|--------------------------||-----------------------|
|--------------------------||-----------------------|
|--------------------------||-----------------------|
|
|  E E    Q       E  E Q      E E E E    E  E E E
|----------------------3---||-2---2------2----2-----|
|--3------3-------2----5---||-3---3------3----3-----|
|--0------0-------0----3---||---2-----------2-------|
|----2---------------0-5---||-0-----0----0----------|
|--0--------------0--------||-----------------------|
|--------------------------||-------------------0---|


    F#m7                  Fm7
  a  E  E  E  S  S  +Q    E E
|-------------------------7-9-|
|-8s10-10-10-12-14-(14)-------|
|-9s11-11-11-12-14-(14)-------|
|-----------------------------|
|-----------------------------|
|-----------------------------|
|
|    E  E  E  E      E  E E E
|----2-----2---------2----1---|
|----2-----2---------2----1---|
|-------2---------------2---1-|
|-----------------------------|
|-----------------------------|
|----2--------2------2----1---|


  Em7             A7           F#m7           Bm7
                                                ~~~~
  S  S  E  E S  S  E  E E  E    E  E  E  S  S  +Q    E E
|-9h10-10-10-9-10s12-10-9----|-----------------------7-9-|
|-------------------------12-|-10-10-10-12-10-(10)-------|
|----------------------------|---------------------------|
|----------------------------|---------------------------|
|----------------------------|---------------------------|
|----------------------------|---------------------------|
|
| E     E  E E     E  E E  E    E  E  E  E      E  E E E
|----------------------------|---------------------------|
|-0--------0-------2----2----|--2-----2---------3----3---|
|-0--------0-------0----0----|--2-----2---------2----2---|
|-------0-------------2------|-----2---------------4-----|
|------------------0---------|------------------2--------|
|-0----------0-------------0-|--2--------0-------------0-|


  Em7             A7           F#m7         Bm7
                                              ~~~~
  S  S  E  E S  S  E  E E  E    Q   E.    S  +H
|-9h10-10-10-9-10s12-10-9----|------9----10-(10)-------|
|-------------------------12-|-10----------------------|
|----------------------------|-------------------------|
|----------------------------|-------------------------|
|----------------------------|-------------------------|
|----------------------------|-------------------------|
|
| E     E  E E     E  E E  E    E E E  E      E  E E E
|----------------------------|-------------------------|
|-0--------0-------2----2----|--2---2---------3----3---|
|-0--------0-------0----0----|--2---2---------2----2---|
|-------0-------------2------|----2--------------4-----|
|------------------0---------|----------------2--------|
|-0----------0-------------0-|--2------0-------------0-|


  Em7       A7sus4A7      D
  E E E S S +E  E E S S   +W
|-----------------------|----------------|
|-------8-7-(7)---------|----------------|
|-----7---------9-7-6-7-|-(7)------------|
|---9-------------------|----------------|
|-----------------------|----------------|
|-----------------------|----------------|
|
| E E E E    E  E E E      E  E E E H
|-----------------------|--2--------2----|
|-3---3------3----2-----|--3----3--------|
|-0---0------0----0-----|-----2---2------|
|---0-----------2---2---|--0-------------|
|-------0----0----0-----|----------------|
|-0---------------------|----------------|


  G                 A7             D       G         Em7       A7suA7
  E E E E E E Q     Q  Q  Q  Q     W                 +W
|-----------------|-------------||-----------------|--------------------|
|-------8-7-------|----------8--||-7---------------|-(7)----------------|
|-----7-----9-7---|-6--7--9--9--||-7---------------|-(7)----------------|
|---9-------------|-------------||-----------------|--------------------|
|-----------------|-------------||-----------------|--------------------|
|-----------------|-------------||-----------------|--------------------|
|
| E E E E E E E E   Q  Q  H        E E E E E E E E    E  E E E E E E E
|-----------------|-------------||-2-----0---------|--------------------|
|-0---0---0-------|-2--3--5-----||-3---3---3---3---|--3------3-3---2-0--|
|-0---0---0---0---|----4--6-----||---2-----0---0---|--0----0---0--------|
|---0---0---0---0-|-------------||-0---------0---0-|-----0-------2------|
|-----------------|-0-----------||-----------------|-----------0---0----|
|-3---------------|-------------||---------3---2---|--0-----------------|


                    H.=H
  F#m7    Bm7       Em7     A7      D
  W                 H       Q  Q    W
|-----------------|---------------|------*|
|-----------------|------------8--|-7----*|
|-----------------|------------9--|-7----*|
|-----------------|---------------|------*|
|-----------------|---------------|------*|
|-----------------|---------------|------*|
|
| E E E E E E E E   E E E E H       W
|-----------------|---------------|-2----*|
|-2-----2-3-----3-|-3-----3-2-----|-3----*|
|-----2---2---2---|-0---0---0-----|-2----*|
|---2-------4-----|---0-----------|-0----*|
|---------2-------|---------0-----|------*|
|-2---------------|-0-------------|------*|


Duration Legend
---------------
W - whole; H - half; Q - quarter; E - 8th; S - 16th; T - 32nd; X - 64th; a - acciaccatura
+ - note tied to previous; . - note dotted; .. - note double dotted
Uncapitalized letters represent notes that are staccato (1/2 duration)
Irregular groupings are notated above the duration line
Duration letters will always appear directly above the note/fret number it represents the
duration for.  Duration letters with no fret number below them represent rests.  Multi-
bar rests are notated in the form Wxn, where n is the number of bars to rest for.  Low
melody durations appear below the staff

Tablature Legend
----------------
 h   - hammer-on
 p   - pull-off
 b   - bend
 pb  - pre-bend
 r   - bend release (if no number after the r, then release immediately)
 /\  - slide into or out of (from/to "nowhere")
 s   - legato slide
 S   - shift slide
  - natural harmonic
[n]  - artificial harmonic
n(n) - tapped harmonic
 ~   - vibrato
 tr  - trill
 T   - tap
 TP  - trem. picking
 PM  - palm muting
\n/  - tremolo bar dip; n = amount to dip
 \n  - tremolo bar down
 n/  - tremolo bar up
/n\  - tremolo bar inverted dip
 =   - hold bend; also acts as connecting device for hammers/pulls
 <>  - volume swell (louder/softer)
 x   - on rhythm slash represents muted slash
 o   - on rhythm slash represents single note slash

Misc Legend
-----------
 |  - bar
||  - double bar
||o - repeat start
o|| - repeat end
*|  - double bar (ending)
 :  - bar (freetime)
 $  - Segno
 &  - Coda
Tempo markers -  = BPM(8/16=s8/s16), where s8 = swing 8ths, s16 = swing 16ths

            
            
Suggest correction
Creating personal tab
Creating personal tab
You can edit any tab online and save it as your Personal.

You can edit, replace or remove any tab part or add personal notes – all changes will be seen only by you.

Personal tabs can be accessed anytime from any device, even offline.
Learn more »
Give kudos to tab author, rate the tab!
1 2 3 4 5
comments
print report bad tab
guest
You may want to rate the tab now too:
select rating
Wanna post a correction for this tab? Suggest correction