Oops, an error
Loading. Please wait.

No One Does It Like You tab

version 2
version 2

Whole song

4,399 views 6 this week
no commentswrite comment
1 2 3 4 5
1 last vote to show rating
add to favorites
×
Save as Personal and add changes to this tab that will be seen only by you. Learn more ›
×
You can save this tab as Personal to edit and correct it or add notes. All changes will be seen only by you. Learn more »
launch autoscroll
font size
0
reset
how to read this tab
guitar tuner
edit
Autoscroll
slow
fast
+/-
esc
set tempo
stop
============================================================
NO ONE DOES IT LIKE YOU - DEPARTMENT OF EAGLES
============================================================

Tabbed by Ben Chen
August 3, 2009

Based on the DUMBO session with just Rossen and his guitar.
Strumming is pretty simplified but I included more detail
for the more important parts like transition to the chorus.
Also included some idea of how he was messing around with
the chords. Enjoy.


Drop D tuning (DADGBe).


e|--------9-----------------9-------------------------------|
B|--------9-----------------9-------------------------------|
G|--------9-----------------9-------6-6-6-6-6-6-6-6---------|
D|--------9-----------------11------x-x-x-x-x-x-x-x---------|
A|--------11----------------x-------7-7-8-8-9-9-7-7---------|
D|----9---9----------11-----11------7-7-7-7-7-7-7-7---------|

          Out in the morning   calm             You don't
          And in the morning   calm             You don't

e|-------------------------3-3-3--2----2-2-2----------------|
B|-------------------------5-3-5--4----4-2-4----------------|
G|----9--------------------3-3-3--2----2-2-2----------------|
D|----6---------------5----5-5-5--4----4-4-4----------------|
A|----7---------------3----3---3--2-------------------------|
D|----6-----------------------------------------------------|

      need to have an alibi
      need to have an alibi

e|--------9-----------------9-------------------------------|
B|--------9-----------------9-------------------------------|
G|--------9-----------------9-------6-6-6-6-6-6-6-6---------|
D|--------9-----------------11------x-x-x-x-x-x-x-x---------|
A|--------11----------------x-------7-7-8-8-9-9-7-7---------|
D|----9---9----------11-----11------7-7-7-7-7-7-7-7---------|

          And in the morning   calm             You don't
          And in the morning   calm             You don't      

e|----------------------------------------------------------|
B|----------------------------------------------------------|
G|----9-------------------6-6-6-6-6-6-6--6------------------|
D|----6-------------------x-x-x-x-x-x-x--x------------------|
A|----7-------------------7-7-8-8-9-9-10-10-----------------|
D|----6-------------------7-7-7-7-7-7-7--7------------------|

      need to be so     honest
      need to breath so easy

============================================================

e|----------------------------------------------------------|
B|----------------------------------------------------------|
G|----------1---------------1-----------8---6-----8-6-------|
D|--------------------------------------6---6-----6-6-------|
A|------2-----------2-----2---/7------7-7---7-----7-7-------|
D|----2----------------0------------6---6-6-6-6-6-----------|

          I laughed so hard I  fell down                 

e|-------5-5-5------2---2-2--2-2-2--------------------------|
B|-------5-5-5------2---4-4--2-4-2--------------------------|
G|-------5-5-5------2---2-2--2-2-2--------------------------|
D|-------7-7-7------2---2-2--2-2-2--------------------------|
A|---------7--------x---------------------------------------|
D|----7--7---7---4--4---------------------------------------|

         Oh 

e|-------------------------------------------------------10-|
B|-------------------------------------------------------10-|
G|----------1----------------1------------8---6----------10-|
D|----------------------------------------6---6---9------12-|
A|------2---------2--------2---/7-------7-7---7---7------12-|
D|----2-----------------0-------------6---6-6-6-6-6-6-0-----|

          I curse these legs I walked on                  Oh

e|--2---2---2---2---2---2---2---2-2-2-2-2-2-2-2-2-2-2-2-2-----------|
B|--2---2---2---2---4---4---4---4-x-x-5-5-x-x-4-4-x-2-4-2-----------|
G|--2---2---2---2---2---2---2---2-x-x-2-2-x-x-2-2-x-2-2-2-----------|
D|--2---2---2---2---2---2---2---2-x-x-2-2-x-x-2-2-x-2-2-2-----x-----|
A|--x---x---x---x---x---x---x---x-x-x-----x-x-----x-x---------x-----|
D|--4---4---4---4---4---4---4---4-4-4-----4-4-----4-4-------9-x-9/--|


============= CHORUS =========================================

e|--------9--------------9----------0--0-0--------------------|
B|--------9--------------9----------0--0-0--------------------|
G|--------9--------------9----------1--1-1--------------------|
D|--------11-------------9----------x--x-x--------------------|
A|--------x--------------11---------2--2-2--------------------|
D|----/11-11-----9-------9-------2--2--1-0--------------------|
                                                      (repeat)
          No one does it like you

e|----2-----------------------------0--0--0--2-0-0------------|
B|----0-----------------------------2--0--2--0-0-2------------|
G|----2-----------------------------1--1--1--1-1-1------------|
D|----1-----------------------------x--x--x--x-x-x------------|
A|----2-----------------------------2--2--2--2---2------------|
D|----1--------------------------2--2--2--2--2---2------------|

          I tried so hard

                                                (repeat chorus)
==============================================================

e|----2-------------------0-----------------------------------|
B|----0-------------------0-----4-----3-----2-0---------------|
G|----2-------------------1-----1-----1-----1-1---------------|
D|----1-------------------x-----x-x-x-x-x-x-x-x---------------|
A|----2-------------------2-----2-2-2---2-2-2-----------------|
D|----1-------------------2-----2-2-2---2-2-2-----------------|

          To make ends me - et  Oh    oh    oh oh

e|----------2---------------2---------------------------------|
B|--------------0-------0-----------0-------------------------|
G|--------2---------2-----------2-----------2-2-2---1---------|
D|----------------1-------1-------1---------1-1-1---x---------|
A|----2-------2-------2-------2-------2-----2-2-2---2---------|
D|------------------------------------------------2-2---------|

======================================================================

| /  slide up
| \  slide down
| h  hammer-on
| p  pull-off
| ~  vibrato
| +  harmonic
| x  Mute note

            
            
Suggest correction
Creating personal tab
Creating personal tab
You can edit any tab online and save it as your Personal.

You can edit, replace or remove any tab part or add personal notes – all changes will be seen only by you.

Personal tabs can be accessed anytime from any device, even offline.
Learn more »
Give kudos to tab author, rate the tab!
1 2 3 4 5
comments
print report bad tab
guest
You may want to rate the tab now too:
select rating
Wanna post a correction for this tab? Suggest correction