Oops, an error
Loading. Please wait.

A Pain That Im Used To Tab

version 2
version 2

Whole song

Interactive

7,440 views 1 this week
no commentswrite comment
1 2 3 4 5
excellent!
x 3
add to favorites
launch autoscroll
font size
0
reset
how to read this tab
guitar tuner
Tab Pro tools
  • play this tab
  • loop segment
  • change instrument
  • show fretboard
  • metronome
×
Best way to learn
"A Pain That Im Used To"
Autoscroll
slow
fast
+/-
esc
set tempo
stop
Difficulty
novice
Chrods:

D5:	F5:	Bb5:	G5:
E|x|	E|x|	E|x|	E|x|
B|x|	B|x|	B|x|	B|x|
G|7|	G|x|	G|3|	G|x|
D|7|	D|3|	D|3|	D|5|
A|5|	A|3|	A|1|	A|5|
E|x|	E|1|	E|x|	E|3|

Intro:

E|---------------|	let ring
B|---------------|
G|---------------|
D|------0--------|
A|---------------|
E|---------------|

E|-------------------|	play 8 times
B|-------------------|
G|-------------------|
D|-------------------|
A|-5-5-5-5-5-8-5-8-5-|
E|-------------------|

E|-------------------|
B|-15-13-11-10-6-----|
G|-------------------|
D|-------------------|
A|-------------------|
E|-------------------|

Verse 1:

E|---------------------------------|
B|---------------------------------|
G|---------------------------------|
D|---------------------------------|
A|-5-5-5-5-8-5-8-5-5-5-5-5-8-5-8-5-|
E|---------------------------------|

I'm not sure what I'm looking for anymore

E|---------------------------------|
B|---------------------------------|
G|---------------------------------|
D|---------------------------------|
A|-4-4-4-4-7-4-7-4-4-4-4-4-7-4-7-4-|
E|---------------------------------|

I just know that I'm harder to console

E|---------------------------------|
B|---------------------------------|
G|---------------------------------|
D|---------------------------------|
A|-5-5-5-5-8-5-8-5-5-5-5-5-8-5-8-5-|
E|---------------------------------|

I don't see who I'm trying to be instead of me

E|---------------------------------|
B|---------------------------------|
G|---------------------------------|
D|---------------------------------|
A|-4-4-4-4-7-4-7-4-4-4-4-4-7-4-7-4-|
E|---------------------------------|

But the key is a question of control

Solo:

E|----------------------------------------|	play 2 times
B|----------------------------------------|
G|------------------------9--7-----9--10--|
D|---7--10--8--7--10----7-------7---------|
A|-(8)----------(8)---(8)--------(8)------|
E|----------------------------------------|

Verse 2:

Can you say what you're trying to play anyway
I just pay while you're breaking all the rules
All the signs that I find have been underlined
Devils thrive on the drive that is fueled

Chorus:

D5			 F5
All this running around, well it's getting me down

Bb5		    G5
Just give me a pain that I'm used to

D5			F5
I don't need to believe all the dreams you conceive

Bb5		   	 G5
You just need to achieve something that rings true

E|-------------------------|	play 4 times
B|-------------------------|
G|-7-7--10-x----7-7--10-10-|
D|-7-7--10-x----7-7--10-10-|
A|-5-5-- 8-x----5-5-- 8--8-|
E|-------------------------|

Verse 3:

There's a hole in your soul like an animal
With no conscience, repentance, oh no
Close your eyes, pay the price for your paradise
Devils feed on the seeds of the soul

Solo

Verse 4:

I can't conceal what I feel, what I know is real
No mistaking the faking, I care
With a prayer in the air I will leave it there
On a note full of hope not despair

Chorus 2 times
comments
We did not receive enough feedback on this tab! Please rate:
print report bad tab
1 2 3 4 5
I want to post or [tab]
guest
You may want to rate the tab now too:
select rating
Please do not post tabs as comments. Select "correction" instead!