Oops, an error
Loading. Please wait.

A Question Of Time Tab

version 1
version 1

Live

Whole song

Interactive

2,169 views 3 this week
1 commentread comment
1 2 3 4 5
please rate
add to favorites
launch autoscroll
font size
0
reset
how to read this tab
guitar tuner
Tab Pro tools
  • play this tab
  • loop segment
  • change instrument
  • show fretboard
  • metronome
×
Best way to learn
"A Question Of Time"
Autoscroll
slow
fast
+/-
esc
set tempo
stop
Contributor
A Question Of Time,

Performed by: Depeche Mode
Written by:Martin L. Gore
Tabbed by: Donnet Güemes
Mail: phazon_elite24@hotmail.com

\ - Slide down
/ - Slide up
------------------------------------

Ok, folks, this is the tab for A Question of Time by Depeche Mode, the way Martin plays 
during the Touring the Angel tour.

Intro (Adapted for guitar) x2

E |--------1313-------------------|
B |----3--------------------------|
G |-0-----------------------------|
D |-------------------------------|
A |-------------------------------|
E |-------------------------------|
----------------------------------|

Verse:


E |--------------------------|
B |--------------------------|
G |--------------------------|
D |-555-6\5555---333-4-3333--|
A |-555-6\5555---333-4\3333--|
E |-333-4\3333---111-2\1111--|  x2

E |----------------------------|
B |----------------------------|
G |-555-6\5555--------8888888--|
D |-555-6\5555--6666--8888888--|
A |-333-4\3333--6666--6666666--|
E |-------------4444-----------|

Note: Sometimes, Martin adds some palm mutes to the notes above, although I didn't note them down.
--------------------------------------------------------------

Melody:


E |---------------------------------------------------------|
B |---------------------------------------------------------|
G |-------3--------------3--------------5-------------5-----|
D |-5\4/5---5-5----5\4/5---5-5----5\4/5---7-----5\4/5---7---|
A |-----------------------------------------6-------------6-|
E |---------------------------------------------------------| x2

-------------------------------------------------------------------

Chorus:

E |-----------------------------------|
B |--4-4------------------------------|
G |-55555-5-5-5-5-5----5-5------------|
D |-55555-5-5-5-5-5---66666-6-6-6-6-6-|
A |-33333-3-3-3-3-3---66666-6-6-6-6-6-|
E |-------------------44444-4-4-4-4-4-|


E |-------------------------------------------|
B |-------------------------------------------|
G |-------------------------------------------|
D |-33333333--33333333--66666666--888888888\--|
A |-33333333--55555555--66666666--888888888\--|
E |-11111111--33333333--44444444--666666666\--|


I hope it's understandable and helpful for you all. See you next tab.
comments
We did not receive enough feedback on this tab! Please rate:
print report bad tab
1 2 3 4 5
1 comment total.
0 reply
DoYouWAnTto wrote on January 31 2008, 07:32 pm

Sorry guys, the second position during the chorus should be

E |------------|
B |------------|
G |------------|
D
|--55555555--|
A |--55555555--|
E |--33333333--|

Instead of

E |------------|
B |------------|
G
|------------|
D |--33333333--|
A |--55555555--|
E |--33333333--|.

Again, I'm sorry for the inconvenience

I want to post or [tab]
guest
You may want to rate the tab now too:
select rating
Please do not post tabs as comments. Select "correction" instead!