Oops, an error
Loading. Please wait.

A Question Of Time tab

version 3
version 3

Whole song

Interactive

196 views 1 this week
no commentswrite comment
1 2 3 4 5
3 more votes to show rating
add to favorites
×
Save as Personal and add changes to this tab that will be seen only by you. Learn more ›
×
You can save this tab as Personal to edit and correct it or add notes. All changes will be seen only by you. Learn more »
launch autoscroll
font size
0
reset
how to read this tab
guitar tuner
edit
Autoscroll
slow
fast
+/-
esc
set tempo
stop
DEPECHE MODE - A QUESTION OF TIME [Hard Rock Guitar Tab]
mo79uk@gmail.com

Tuning: Drop D & Full Step (CGCFAD)

MAIN (SYNTH)
A:--------1--------------1-------------3-------------3------:
F:--2-0-2---2--2---2-0-2---2-2---2-0-2---2-----2-0-2---2----:
C:-----------------------------------------3-------------3--: x2

VERSE A [PALM MUTED] (SYNTH BASS)
G:--7-7-7-7-7-7-8-7-7-7-7-7-7-7-7-7-5-5-5-5-5-5-6-5-5-5-5-5-5-5-5-5--:
C:--7-7-7-7-7-7-8-7-7-7-7-7-7-7-7-7-5-5-5-5-5-5-6-5-5-5-5-5-5-5-5-5--: x2

VERSE B [PALM MUTED] (SYNTH BASS)
G:--0-0-0-0-0-0-1-0-0-0-0-0-0-0-0-0-8-8-8-8-8-8-8-3-3-3-3-3-3-3-3-3--:
C:--0-0-0-0-0-0-1-0-0-0-0-0-0-0-0-0-8-8-8-8-8-8-8-3-3-3-3-3-3-3-3-3--:

PRE-CHORUS A (LEAD TO BASS SYNTH)
A:---------------------------9--9-9-------------------------------------:
F:--7--7--7--7--7--7--7--7---7--7-7-------------------------------------:
C:----------------------------------------------------------------------:
G:-----------------------------------8-8-8-8-8-8-8-8-8-8-8-8-8-8-8-8-8--:
C:-----------------------------------8-8-8-8-8-8-8-8-8-8-8-8-8-8-8-8-8--:
                                     [PALM MUTED         ]
*Maybe bend the first 8 notes?

PRE-CHORUS B [PALM MUTED] (SYNTH BASS)
G:--5-5-5-5-5-5-5-5-7-7-7-7-7-7-7-7-8-8-8-8-8-8-8-8-10-10-10-10-10-10-10--10--:
C:--5-5-5-5-5-5-5-5-7-7-7-7-7-7-7-7-8-8-8-8-8-8-8-8-10-10-10-10-10-10-10--10--:

PRE-CHORUS C (SYNTH BASS)
G:--5--5--5--5--7--7--7--7--8--8--8--8--10--10--10--10---10--:
C:--5--5--5--5--7--7--7--7--8--8--8--8--10--10--10--10---10--:
*Alternately play each of the chords once instead and let them ring out 
(as I recorded), let the last C&G10 stop abruptly as PRE-CHORUS B

MAIN OVERLAY (SYNTH)
F:--9--7--5-7-------10-9-5-7---------9--7--5-7-------10-9-5-7--:
C:------------9---9----------10---10-----------9---9-----------:

MID A/OUTRO (SYNTH)
D:--13(Holdx16)-16(Holdx3)-18(Holdx13)--: x2 (x6 on Outro)

MID B (SYNTH)
A:--19(Holdx16)-16(Holdx16)-19(Holdx16)-16(Holdx6)-14(Holdx9)--:

ARRANGEMENT (arranged as best as possible to let most audible riffs breathe for guitar):
MAIN
VERSE A
VERSE B
MAIN
VERSE A [variation]
VERSE B [variation]
PRE-CHORUS A
PRE-CHORUS B
[first 5 notes of MAIN then] MAIN OVERLAY
VERSE A
VERSE B
PRE-CHORUS A
PRE-CHORUS B
PRE-CHORUS C
[first 5 notes of MAIN then] MAIN OVERLAY
MID A/OUTRO
MID B
MAIN
MID A/OUTRO
(MAIN x2 *Optional ending)

            
            
Suggest correction
Creating personal tab
Creating personal tab
You can edit any tab online and save it as your Personal.

You can edit, replace or remove any tab part or add personal notes – all changes will be seen only by you.

Personal tabs can be accessed anytime from any device, even offline.
Learn more »
Give kudos to tab author, rate the tab!
1 2 3 4 5
comments
print report bad tab
guest
Wanna post a correction for this tab? Suggest correction