Oops, an error
Loading. Please wait.

Any Second Now Voices Bass Tab

265 views 1 this week
no commentswrite comment
1 2 3 4 5
x 5
add to favorites
launch autoscroll
font size
0
reset
guitar tuner
Autoscroll
slow
fast
+/-
esc
set tempo
stop
Help us to improve Ultimate-Guitar.com Take our survey!
×
Author
Difficulty
novice
Tabbed by: bassm99
E-mail: alanmatthews1966@yahoo.co.uk

Tuning: E, A, D, G

"Any Second Now (Voices)" from the album "Speak & Spell" (1981)
Written by Vince Clarke

Intro: 

G|--------------------------------------------------------------------------|
D|--------------------------------------------------------------------------|
A|--------------------------------------------------------------------------|
E|--33--333--333--333--333--------------------------------------------------|

Verse: (Play 7 Times)

G|--------------------------------------------------------------------------|
D|--------------------------------------------------------------------------|
A|---22--2------------------------------------------------------------------|
E|--3-----33----------------------------------------------------------------|

Bridge:

G|--------------------------------------------------------------------------|
D|--------------------------------------------------------------------------|
A|---22--233--355--5--------------------------------------------------------|
E|--3---------------11--155--533--------------------------------------------|

Pre Verse: (Play 2 Times)

G|--------------------------------------------------------------------------|
D|--------------------------------------------------------------------------|
A|---22--2------------------------------------------------------------------|
E|--3-----33----------------------------------------------------------------|

Repeat Verse:

Repeat Bridge:

End: (Play 7 Times)

G|--------------------------------------------------------------------------|
D|--------------------------------------------------------------------------|
A|--------------------------------------------------------------------------|
E|--333---------------------------------------------------------------------|
Suggest correction
comments
print report bad tab
guest
You may want to rate the tab now too:
select rating
Wanna post a correction for this tab? Suggest correction