Oops, an error
Loading. Please wait.

Barrel Of A Gun Bass Tab

version 1
version 1

Whole song

Interactive

953 views 3 this week
no commentswrite comment
1 2 3 4 5
accurate
x 1
add to favorites
launch autoscroll
font size
0
reset
guitar tuner
Tab Pro tools
  • play this tab
  • loop segment
  • change instrument
  • show fretboard
  • metronome
Autoscroll
slow
fast
+/-
esc
set tempo
stop
Contributor
Song: "Barrel of a Gun"
Band: Depeche Mode
Album: 'Ultra'
Year: 1997

It sounds like there're a few low D notes in the recording,
so you could play this in drop D if you wanted to sound more exact.
It doesn't really make that much of a difference, though.
This is the way that I play it,
so it's a little bit more complicated the original.

Intro/Verse

G ------------------|
D ------------------|
A ------------------|
E 0-0--0-2h3p2-0--0-|

Pre-Chorus

G -----------------------------|
D -----------------------------|
A -----------------------------|
E 0-0-(11)12-0--0-2h3p2-0/12-0-|

G -----------------------------|
D -----------------------------|
A 0-0-(11)12-0--0-2h3p2-0/12-0-|
E -----------------------------|

G ----------------------------|
D ----------------------------|
A ----------------------------|
E 3-3--3-3-3-3-2h3p2-1--1-1-1-|

Chorus

G ----------------------------|
D ----------------------------|
A ----------------------------|
E 0-0--0-0-0-0-2h3p2-0--0-0-0-|

G ----------------------------|
D ----------------------------|
A ----------------------------|
E 5-5--5-5-5-5-3h5p3-3--3-3-3-|

G ----------------------------|
D ----------------------------|
A ----------------------------|
E 1-1--1-1-1-1-1-1-1-1--1-1-1-|

G ----------------------------|
D ----------------------------|
A 3-3--3-3-3-3-2h3p2----------|
E -------------------3--3-3-3-|
comments
We did not receive enough feedback on this tab! Please rate:
print report bad tab
1 2 3 4 5
I want to post or [tab]
guest
You may want to rate the tab now too:
select rating
Please do not post tabs as comments. Select "correction" instead!