Oops, an error
Loading. Please wait.

Behind The Wheel Bass Tab

version 1
version 1

Whole song

Interactive

67 views 1 this week
no commentswrite comment
1 2 3 4 5
3 more votes to show rating
add to favorites
launch autoscroll
font size
0
reset
guitar tuner
Autoscroll
slow
fast
+/-
esc
set tempo
stop
Help us to improve Ultimate-Guitar.com Take our survey!
×
Author
Difficulty
novice
Bass Start - 00:06


[Intro] (x5)

G|---------------------|--------------------|-7-7-7-7-7-(7-7)--7-|-7-7-7-7-7-(7-7)--7-|
D|--9-9-9-9-9-(9-9)--9-|-9-9-9-9-9-(9-9)--9-|--------------------|--------------------|
A|---------------------|--------------------|--------------------|--------------------|
E|---------------------|--------------------|--------------------|--------------------|


G|--------------------|--------------------|--------------------|--------------------|
D|-5-5-5-5-5-(5-5)--5-|-5-5-5-5-5-(5-5)--5-|-8-8-8-8-8-(8-8)--8-|-8-8-8-8-8-(8-8)--8-|
A|--------------------|--------------------|--------------------|--------------------|
E|--------------------|--------------------|--------------------|--------------------|


[Verse 1] (x2)

G|--------------------|--------------------|-7-7-7-7-7-(7-7)--7-|-7-7-7-7-7-(7-7)--7-|
D|-9-9-9-9-9-(9-9)--9-|-9-9-9-9-9-(9-9)--9-|--------------------|--------------------|
A|--------------------|--------------------|--------------------|--------------------|
E|--------------------|--------------------|--------------------|--------------------|


G|--------------------|--------------------|--------------------|--------------------|
D|-5-5-5-5-5-(5-5)--5-|-5-5-5-5-5-(5-5)--5-|-8-8-8-8-8-(8-8)--8-|-8-8-8-8-8-(8-8)--8-|
A|--------------------|--------------------|--------------------|--------------------|
E|--------------------|--------------------|--------------------|--------------------|


[Interlude]

G|--------------------|--------------------|-7-7-7-7-7-(7-7)--7-|-7-7-7-7-7-(7-7)--7-|
D|-9-9-9-9-9-(9-9)--9-|-9-9-9-9-9-(9-9)--9-|--------------------|--------------------|
A|--------------------|--------------------|--------------------|--------------------|
E|--------------------|--------------------|--------------------|--------------------|


G|--------------------|--------------------|--------------------|--------------------|
D|-5-5-5-5-5-(5-5)--5-|-5-5-5-5-5-(5-5)--5-|-8-8-8-8-8-(8-8)--8-|-8-8-8-8-8-(8-8)--8-|
A|--------------------|--------------------|--------------------|--------------------|
E|--------------------|--------------------|--------------------|--------------------|


[Verse 2] (x2)

G|--------------------|--------------------|-7-7-7-7-7-(7-7)--7-|-7-7-7-7-7-(7-7)--7-|
D|-9-9-9-9-9-(9-9)--9-|-9-9-9-9-9-(9-9)--9-|--------------------|--------------------|
A|--------------------|--------------------|--------------------|--------------------|
E|--------------------|--------------------|--------------------|--------------------|


G|--------------------|--------------------|--------------------|--------------------|
D|-5-5-5-5-5-(5-5)--5-|-5-5-5-5-5-(5-5)--5-|-8-8-8-8-8-(8-8)--8-|-8-8-8-8-8-(8-8)--8-|
A|--------------------|--------------------|--------------------|--------------------|
E|--------------------|--------------------|--------------------|--------------------|


[Interlude] (x3)

G|--------------------|--------------------|-7-7-7-7-7-(7-7)--7-|-7-7-7-7-7-(7-7)--7-|
D|-9-9-9-9-9-(9-9)--9-|-9-9-9-9-9-(9-9)--9-|--------------------|--------------------|
A|--------------------|--------------------|--------------------|--------------------|
E|--------------------|--------------------|--------------------|--------------------|


G|--------------------|--------------------|--------------------|--------------------|
D|-5-5-5-5-5-(5-5)--5-|-5-5-5-5-5-(5-5)--5-|-8-8-8-8-8-(8-8)--8-|-8-8-8-8-8-(8-8)--8-|
A|--------------------|--------------------|--------------------|--------------------|
E|--------------------|--------------------|--------------------|--------------------|


[Verse 3] (x2)

G|--------------------|--------------------|-7-7-7-7-7-(7-7)--7-|-7-7-7-7-7-(7-7)--7-|
D|-9-9-9-9-9-(9-9)--9-|-9-9-9-9-9-(9-9)--9-|--------------------|--------------------|
A|--------------------|--------------------|--------------------|--------------------|
E|--------------------|--------------------|--------------------|--------------------|


G|--------------------|--------------------|--------------------|--------------------|
D|-5-5-5-5-5-(5-5)--5-|-5-5-5-5-5-(5-5)--5-|-8-8-8-8-8-(8-8)--8-|-8-8-8-8-8-(8-8)--8-|
A|--------------------|--------------------|--------------------|--------------------|
E|--------------------|--------------------|--------------------|--------------------|


[Outro] (repeat until the end) 

G|--------------------|--------------------|-7-7-7-7-7-(7-7)--7-|-7-7-7-7-7-(7-7)--7-|
D|-9-9-9-9-9-(9-9)--9-|-9-9-9-9-9-(9-9)--9-|--------------------|--------------------|
A|--------------------|--------------------|--------------------|--------------------|
E|--------------------|--------------------|--------------------|--------------------|


G|--------------------|--------------------|--------------------|--------------------|
D|-5-5-5-5-5-(5-5)--5-|-5-5-5-5-5-(5-5)--5-|-8-8-8-8-8-(8-8)--8-|-8-8-8-8-8-(8-8)--8-|
A|--------------------|--------------------|--------------------|--------------------|
E|--------------------|--------------------|--------------------|--------------------|



*****************************

| ( ) : very fast

*****************************

in regular sequence!
Suggest correction
Give kudos to tab author, rate the tab!
1 2 3 4 5
comments
print report bad tab
guest
You may want to rate the tab now too:
select rating
Wanna post a correction for this tab? Suggest correction