Oops, an error
Loading. Please wait.

Black Celebration Bass Tab

version 1
version 1

Whole song

Interactive

37 views 3 this week
no commentswrite comment
1 2 3 4 5
3 more votes to show rating
add to favorites
launch autoscroll
font size
0
reset
guitar tuner
Autoscroll
slow
fast
+/-
esc
set tempo
stop
Help us to improve Ultimate-Guitar.com Take our survey!
×
Author
Difficulty
novice
Bass Start - 00:43


[Intro] (x2)

G|----------------|----------------|----------------|----------------|
D|----------------|----------------|--3-------------|----------------|
A|--5-------------|--------r-------|----------------|--------r-------|
E|----------------|----------------|----------------|----------------|


G|----------------|----------------|----------------|----------------|
D|--5-------------|----------------|--3-------------|--2-------------|
A|----------------|--------r-------|----------------|----------------|
E|----------------|----------------|----------------|----------------|


[Verse 1]

G|----------------|----------------|----------------|----------------|
D|----------------|----------------|--3-------------|----------------| -|
A|--5-------------|--------r-------|----------------|--------r-------|  |
E|----------------|----------------|----------------|----------------|  |
                                                                        | 
                                                                        | (x2)
G|----------------|----------------|----------------|----------------|  |  
D|--5-------------|----------------|--3-------------|--2-------------|  |
A|----------------|--------r-------|----------------|----------------| -|
E|----------------|----------------|----------------|----------------|


G|----------------|----------------|----------------|----------------|
D|----------------|----------------|--3-------------|----------------|
A|--5-------------|--------r-------|----------------|--------r-------|
E|----------------|----------------|----------------|----------------|


G|----------------|----------------|----------------|----------------|
D|--5-------------|----------------|----------------|----------------|
A|----------------|--------r-------|----------------|--------r-------|
E|----------------|----------------|--6-------------|----------------|


[Interlude]

G|----------------|----------------|----------------|----------------|
D|----------------|----------------|--3-------------|----------------|
A|--5-------------|--------r-------|----------------|--------r-------|
E|----------------|----------------|----------------|----------------|


G|----------------|----------------|----------------|----------------|
D|--5-------------|----------------|--3-------------|--2-------------|
A|----------------|--------r-------|----------------|----------------|
E|----------------|----------------|----------------|----------------|


[Verse 2] (x2)

G|----------------|----------------|----------------|----------------|
D|----------------|----------------|--3-------------|----------------|
A|--5-------------|--------r-------|----------------|--------r-------|
E|----------------|----------------|----------------|----------------|


G|----------------|----------------|----------------|----------------|
D|--5-------------|----------------|--3-------------|--2-------------|
A|----------------|--------r-------|----------------|----------------|
E|----------------|----------------|----------------|----------------|


[Chorus]

G|----------------|----------------|----------------|----------------|
D|----------------|----------------|----------------|----------------|
A|--1-------------|--------r-------|--3-------------|--------r-------|
E|----------------|----------------|----------------|----------------|


G|----------------|----------------|----------------|----------------|
D|----------------|----------------|--3-------------|----------------| -|
A|--5-------------|--------r-------|----------------|--------r-------|  |
E|----------------|----------------|----------------|----------------|  |
                                                                        |
                                                                        | (x2)
G|----------------|----------------|----------------|----------------|  |
D|--5-------------|----------------|--3-------------|--2-------------|  |  
A|----------------|--------r-------|----------------|----------------| -|
E|----------------|----------------|----------------|----------------|


[Verse 3]

G|----------------|----------------|----------------|----------------|
D|----------------|----------------|--3-------------|----------------|
A|--5-------------|--------r-------|----------------|--------r-------|
E|----------------|----------------|----------------|----------------|


G|----------------|----------------|----------------|----------------|
D|--5-------------|----------------|----------------|----------------|
A|----------------|--------r-------|----------------|--------r-------|
E|----------------|----------------|--6-------------|----------------|


[Interlude]

G|----------------|----------------|----------------|----------------|
D|----------------|----------------|--3-------------|----------------|
A|--5-------------|--------r-------|----------------|--------r-------|
E|----------------|----------------|----------------|----------------|


G|----------------|----------------|----------------|----------------|
D|--5-------------|----------------|--3-------------|--2-------------|
A|----------------|--------r-------|----------------|----------------|
E|----------------|----------------|----------------|----------------|


[Verse 4] (x2)

G|----------------|----------------|----------------|----------------|
D|----------------|----------------|--3-------------|----------------|
A|--5-------------|--------r-------|----------------|--------r-------|
E|----------------|----------------|----------------|----------------|


G|----------------|----------------|----------------|----------------|
D|--5-------------|----------------|--3-------------|--2-------------|
A|----------------|--------r-------|----------------|----------------|
E|----------------|----------------|----------------|----------------|


[Chorus, Outro]

G|----------------|----------------|----------------|----------------|
D|----------------|----------------|----------------|----------------|
A|--1-------------|--------r-------|--3-------------|--------r-------|
E|----------------|----------------|----------------|----------------|


G|----------------|----------------|----------------|----------------|
D|----------------|----------------|--3-------------|----------------| -|
A|--5-------------|--------r-------|----------------|--------r-------|  |
E|----------------|----------------|----------------|----------------|  |
                                                                        |
                                                                        | (x3)
G|----------------|----------------|----------------|----------------|  | 
D|--5-------------|----------------|--3-------------|--2-------------|  |
A|----------------|--------r-------|----------------|----------------| -| 
E|----------------|----------------|----------------|----------------|



************************

| r : rest

************************

in regular sequence!
Suggest correction
Give kudos to tab author, rate the tab!
1 2 3 4 5
comments
print report bad tab
guest
You may want to rate the tab now too:
select rating
Wanna post a correction for this tab? Suggest correction