Oops, an error
Loading. Please wait.

Breathe Bass Tab

1,655 views 1 this week
no commentswrite comment
1 2 3 4 5
2 more votes to show rating
add to favorites
launch autoscroll
font size
0
reset
guitar tuner
Autoscroll
slow
fast
+/-
esc
set tempo
stop
Help us to improve Ultimate-Guitar.com Take our survey!
×
Author
Difficulty
novice
#------------------------PLEASE NOTE-----------------------#
# This file is the author's own work and represents their  #
# interpretation of the song. You may only use this file   #
# for private study, scholarship, or research.             #
#----------------------------------------------------------#


****************************
* Artist: -- Depeche Mode  *
* Song: ---- Breathe       *
* Album: --- Exciter       *
* -----------------------  *
* Tuning: -- E A D G       *
* Tabbed by: Cuboctahedron *
****************************


This song is quite slow. Counting to 3 helps to get a better
timing.


VERSE 1.1 
The first A note starts on "rumour" ("I heard a rumour...").

G|------------------------|------------------------|
D|---------0-----------0--|------------------------|
A|0----03-----0----03-----|------1--3--------1--3--|
E|------------------------|3----3------3----3------|

!= Play 2x =!


VERSE 1.2
F note on "now" ("Please tell me now")

G|------------------------|------------------------|
D|------------------------|------0-00-0------------|
A|---------3--0----0------|------------------------|
E|1----11-----------3----3|1----1------0-00-0111111|

G|------------------------|
D|---------0--------------|
A|0----03-----------------|
E|------------1-----------|


VERSE 2.1
A on "Monday" ("I heard it on Monday...")
-----------------------
!= SAME AS VERSE 1.1 =!
!= Play 2x =!
-----------------------


VERSE 2.2 (with bridge)
F on "know" ("I want to know...")

G|------------------------|------------------------|
D|------------------------|------0-00-0------------|
A|---------3--0----0------|------------------------|
E|1----11-----------3----3|1----1------0-00-0111111|

G|------------------------|------------------------|
D|---------0--------0-----|0---00------------------|
A|0----03--------------0--|------------0---00------|
E|------------1----1------|------0---00------2---22|

G|------------------------|------------------------|
D|0---00------------------|------000000000000------|
A|------------0---00------|------------------------|
E|------0---00------111111|111111------------111111|

G|------------------------|------------------------|
D|------000000000000------|------------------------|
A|------------------------|------------------------|
E|111111------------1-1111|1-11111/0---------------|

Don't 'play' the E note, just slide down from F to
E and quickly mute the string.


VERSE 3.1
A on "Peter" ("I heard it from Peter...")

G|------------------------|------------------------|
D|---------0-----------0--|------------------------|
A|0----03-----0---003-----|------1--3--------1--3--|
E|------------------------|3----3------3---33------|

!= Play 4x =!


VERSE 3.2
F on "know" ("So I need to know...")

G|------------------------|------------------------|
D|------------------------|------0-00-0------------|
A|---------3--0----0------|------------------------|
E|1----11-----------3----3|1----1------0-00-0111111|

G|------------------------|------------------------|
D|---------0-----------0--|---------0-----------0--|
A|0----03-----------------|0----03-----------------|
E|------------1----13-----|------------1----13-----|

G|------------------------|------------------------|
D|---------0-----------0--|---------0-----------0--|
A|0----03-----------------|0----03-----------------|
E|------------1----13-----|------------1----13-----|

F|------------------------|------------------------|
C|---------0-----------0--|------------------------|
G|0----03-----------------|0-----------------------|
D|------------1----13-----|------------------------|
Suggest correction
Give kudos to tab author, rate the tab!
1 2 3 4 5
comments
print report bad tab
guest
You may want to rate the tab now too:
select rating
Wanna post a correction for this tab? Suggest correction