Oops, an error
Loading. Please wait.

But Not Tonight Bass Tab

version 1
version 1

Whole song

Interactive

64 views 3 this week
no commentswrite comment
1 2 3 4 5
2 more votes to show rating
add to favorites
launch autoscroll
font size
0
reset
guitar tuner
Autoscroll
slow
fast
+/-
esc
set tempo
stop
Help us to improve Ultimate-Guitar.com Take our survey!
×
Author
Difficulty
novice
[Intro]

G|----------------|----------------|--4-4-----------|----------------|
D|----------------|--4-4-----------|----------------|--5-5-----------|
A|--5-5-----------|----------------|----------------|----------------|
E|----------------|----------------|----------------|----------------|


G|----------------|----------------|--4-4-----------|----------------|
D|----------------|--4-4-----------|----------------|--5-5-----------|
A|--5-5-----------|----------------|----------------|----------------|
E|----------------|----------------|----------------|----------------|


[Verse 1]

G|-------------------|-------------------|-------------------|-------------------|
D|-------------------|-------------------|--4-4-4-4-4-4-4-4--|--4-4-4-4-4-4-4-4--|
A|--5-5-5-5-5-5-5-5--|--5-5-5-5-5-5-5-5--|-------------------|-------------------|
E|-------------------|-------------------|-------------------|-------------------|


G|--4-4-4-4-4-4-4-4--|--4-4-4-4-4-4-4-4--|-------------------|-------------------|
D|-------------------|-------------------|--5-5-5-5-5-5-5-5--|--5-5-5-5-5-5-5-5--|
A|-------------------|-------------------|-------------------|-------------------|
E|-------------------|-------------------|-------------------|-------------------|


G|-------------------|-------------------|-------------------|-------------------|
D|-------------------|--4-4-4-4-4-4-4-4--|-------------------|--4-4-4-4-4-4-4-4--|
A|--5-5-5-5-5-5-5-5--|-------------------|--5-5-5-5-5-5-5-5--|-------------------|
E|-------------------|-------------------|-------------------|-------------------|


G|--4-4-4-4-4-4-4-4--|--4-4-4-4-4-4-4-4--|-------------------|-------------------|
D|-------------------|-------------------|--5-5-5-5-5-5-5-5--|--5-5-5-5-5-5-5-5--|
A|-------------------|-------------------|-------------------|-------------------|
E|-------------------|-------------------|-------------------|-------------------|


[Bridge]

G|-------------------|-------------------|
D|--7-7-7-7-7-7-7-7--|--5-5-5-5-5-5-5-5--|
A|-------------------|-------------------|
E|-------------------|-------------------|


[Instrumental]

G|-------------------|-------------------|--4-4-4-4-4-4-4-4--|-------------------|
D|-------------------|--4-4-4-4-4-4-4-4--|-------------------|--5-5-5-5-5-5-5-5--|
A|--5-5-5-5-5-5-5-5--|-------------------|-------------------|-------------------|
E|-------------------|-------------------|-------------------|-------------------|


G|-------------------|-------------------|--4-4-4-4-4-4-4-4--|-------------------|
D|-------------------|--4-4-4-4-4-4-4-4--|-------------------|--5-5-5-5-5-5-5-5--|
A|--5-5-5-5-5-5-5-5--|-------------------|-------------------|-------------------|
E|-------------------|-------------------|-------------------|-------------------|


[Verse 2]

G|-------------------|-------------------|-------------------|-------------------|
D|-------------------|-------------------|--4-4-4-4-4-4-4-4--|--4-4-4-4-4-4-4-4--|
A|--5-5-5-5-5-5-5-5--|--5-5-5-5-5-5-5-5--|-------------------|-------------------|
E|-------------------|-------------------|-------------------|-------------------|


G|--4-4-4-4-4-4-4-4--|--4-4-4-4-4-4-4-4--|-------------------|-------------------|
D|-------------------|-------------------|--5-5-5-5-5-5-5-5--|--5-5-5-5-5-5-5-5--|
A|-------------------|-------------------|-------------------|-------------------|
E|-------------------|-------------------|-------------------|-------------------|


G|-------------------|-------------------|-------------------|-------------------|
D|-------------------|--4-4-4-4-4-4-4-4--|-------------------|--4-4-4-4-4-4-4-4--|
A|--5-5-5-5-5-5-5-5--|-------------------|--5-5-5-5-5-5-5-5--|-------------------|
E|-------------------|-------------------|-------------------|-------------------|


G|--4-4-4-4-4-4-4-4--|--4-4-4-4-4-4-4-4--|-------------------|-------------------|
D|-------------------|-------------------|--5-5-5-5-5-5-5-5--|--5-5-5-5-5-5-5-5--|
A|-------------------|-------------------|-------------------|-------------------|
E|-------------------|-------------------|-------------------|-------------------|


[Bridge]

G|-------------------|-------------------|-------------------|-------------------|
D|--7-7-7-7-7-7-7-7--|--5-5-5-5-5-5-5-5--|-------------------|-------------------|
A|-------------------|-------------------|--5-5-5-5-5-5-5-5--|--5-5-5-5-5-5-5-5--|
E|-------------------|-------------------|-------------------|-------------------|


[Verse 3]

G|-------------------|-------------------|--4-4-4-4-4-4-4-4--|-------------------|
D|--7-7-7-7-7-7-7-7--|--4-4-4-4-4-4-4-4--|-------------------|--5-5-5-5-5-5-5-5--|
A|-------------------|-------------------|-------------------|-------------------|
E|-------------------|-------------------|-------------------|-------------------|


G|-------------------|-------------------|--4-4-4-4-4-4-4-4--|--------|
D|--7-7-7-7-7-7-7-7--|--4-4-4-4-4-4-4-4--|-------------------|--5--5--|
A|-------------------|-------------------|-------------------|--------|
E|-------------------|-------------------|-------------------|--------|


[Instrumental]

G|-------------------|-------------------|--4-4-4-4-4-4-4-4--|-------------------|
D|-------------------|--4-4-4-4-4-4-4-4--|-------------------|--5-5-5-5-5-5-5-5--|
A|--5-5-5-5-5-5-5-5--|-------------------|-------------------|-------------------|
E|-------------------|-------------------|-------------------|-------------------|


G|-------------------|-------------------|--4-4-4-4-4-4-4-4--|-------------------|
D|-------------------|--4-4-4-4-4-4-4-4--|-------------------|--5-5-5-5-5-5-5-5--|
A|--5-5-5-5-5-5-5-5--|-------------------|-------------------|-------------------|
E|-------------------|-------------------|-------------------|-------------------|


[Verse 4]

G|-------------------|-------------------|-------------------|-------------------|
D|-------------------|-------------------|--4-4-4-4-4-4-4-4--|--4-4-4-4-4-4-4-4--|
A|--5-5-5-5-5-5-5-5--|--5-5-5-5-5-5-5-5--|-------------------|-------------------|
E|-------------------|-------------------|-------------------|-------------------|


G|--4-4-4-4-4-4-4-4--|--4-4-4-4-4-4-4-4--|-------------------|-------------------|
D|-------------------|-------------------|--5-5-5-5-5-5-5-5--|--5-5-5-5-5-5-5-5--|
A|-------------------|-------------------|-------------------|-------------------|
E|-------------------|-------------------|-------------------|-------------------|


G|-------------------|-------------------|-------------------|-------------------|
D|-------------------|--4-4-4-4-4-4-4-4--|-------------------|--4-4-4-4-4-4-4-4--|
A|--5-5-5-5-5-5-5-5--|-------------------|--5-5-5-5-5-5-5-5--|-------------------|
E|-------------------|-------------------|-------------------|-------------------|


G|--4-4-4-4-4-4-4-4--|--4-4-4-4-4-4-4-4--|-------------------|-------------------|
D|-------------------|-------------------|--5-5-5-5-5-5-5-5--|--5-5-5-5-5-5-5-5--|
A|-------------------|-------------------|-------------------|-------------------|
E|-------------------|-------------------|-------------------|-------------------|


[Bridge]

G|-------------------|-------------------|-------------------|-------------------|
D|--7-7-7-7-7-7-7-7--|--5-5-5-5-5-5-5-5--|-------------------|-------------------|
A|-------------------|-------------------|--5-5-5-5-5-5-5-5--|--5-5-5-5-5-5-5-5--|
E|-------------------|-------------------|-------------------|-------------------|


[Verse 5]

G|-------------------|-------------------|--4-4-4-4-4-4-4-4--|-------------------|
D|--7-7-7-7-7-7-7-7--|--4-4-4-4-4-4-4-4--|-------------------|--5-5-5-5-5-5-5-5--|
A|-------------------|-------------------|-------------------|-------------------|
E|-------------------|-------------------|-------------------|-------------------|


G|-------------------|-------------------|--4-4-4-4-4-4-4-4--|-------------------|
D|--7-7-7-7-7-7-7-7--|--4-4-4-4-4-4-4-4--|-------------------|--5-5-5-5-5-5-5-5--|
A|-------------------|-------------------|-------------------|-------------------|
E|-------------------|-------------------|-------------------|-------------------|


G|-------------------|-------------------|--4-4-4-4-4-4-4-4--|--------|
D|--7-7-7-7-7-7-7-7--|--4-4-4-4-4-4-4-4--|-------------------|--5--5--|
A|-------------------|-------------------|-------------------|--------|
E|-------------------|-------------------|-------------------|--------|


[intro repeat]

G|----------------|----------------|--4-4-----------|----------------|
D|----------------|--4-4-----------|----------------|--5-5-----------|
A|--5-5-----------|----------------|----------------|----------------|
E|----------------|----------------|----------------|----------------|


G|----------------|----------------|--4-4-----------|----------------|
D|----------------|--4-4-----------|----------------|--5-5-----------|
A|--5-5-----------|----------------|----------------|----------------|
E|----------------|----------------|----------------|----------------|


[Instrumental]

G|-------------------|-------------------|--4-4-4-4-4-4-4-4--|-------------------| (x6)
D|-------------------|--4-4-4-4-4-4-4-4--|-------------------|--5-5-5-5-5-5-5-5--|
A|--5-5-5-5-5-5-5-5--|-------------------|-------------------|-------------------|
E|-------------------|-------------------|-------------------|-------------------|


[Outro]

G|----------------|----------------|--4-------------|----------------|----------------|
D|----------------|----------------|----------------|----------------|----------------|
A|--5-------------|--------r-------|----------------|--------r-------|--------r-------|
E|----------------|----------------|----------------|----------------|----------------|



************************************

| r  rest

************************************

in regular sequence!
Suggest correction
Give kudos to tab author, rate the tab!
1 2 3 4 5
comments
print report bad tab
guest
You may want to rate the tab now too:
select rating
Wanna post a correction for this tab? Suggest correction