Oops, an error
Loading. Please wait.

Cover Me chords

1,954 views 117 this week
2 commentsread comments
1 2 3 4 5
x 10
add to favorites
×
Save as Personal and add changes to this tab that will be seen only by you. Learn more ›
×
You can save this tab as Personal to edit and correct it or add notes. All changes will be seen only by you. Learn more »
launch autoscroll
font size
0
reset
transpose
0
reset
simplify chords
display chords
guitar tuner
edit
Autoscroll
slow
fast
+/-
esc
set tempo
stop
Author
Difficulty
About this tab version
Includes chords, fingerings and synth lines for the Outro. Was this info helpful? Yes No
Strumming Is this strumming pattern correct? Yes No
The whole song 98 bpm
1
&
2
&
3
&
4
&
Listen
Depeche Mode
"Cover Me"

  Gm    Fm    Cm    Eb    Bb    Ab    F     F7    Cmadd9/G
e|3-----1-----8-----6-----6-----4-----1-----1-----3-----|
B|3-----1-----8-----8-----6-----4-----1-----1-----3-----|
G|3-----1-----8-----8-----7-----5-----2-----2-----5-----|
D|5-----3-----10----8-----8-----6-----3-----1-----5-----|
A|5-----3-----10----6-----8-----6-----3-----3-----6-----|
E|3-----1-----8-----------6-----4-----1-----1-----3-----|


[Verse]
Gm
  I've felt better
Fm
  I've been up all night
Gm
  I can feel it coming
Fm
  The morning light

[Chorus]
Cm
  The air is so cold here
Eb  
  It's so hard to breath
   Bb               Ab
We better take cover
         Cm
Will you cover me?

[Verse]
F                      Cm
  Way up here with the northern lights
F                Cm
  Beyond you and me
Eb                  Bb
  I dreamt of us in another life
    Ab              Cm
The one we've never reached

Cmadd9/G

[Bridge]
Gm
  And you know we're sinking
Ab
  We could fade away
Gm
  I'm not going down
Ab
  Not today

[Chorus]
Cm
  The air is so cold here
Eb  
  Too cold to see
Bb                    Ab
We have to take cover
Cm
Cover me

[Verse]
F                      Cm
  Way up here with the northern lights
F                    Cm 
  Beyond this broken bars
Eb                  Bb        
  I picture us in another life
Ab                    Cm
  Where we are superstars

[Outro]
Cm  F7
Cm  F7
Cm  F7
Cm  F7

  Cm
e|----------------|----------------|----------------|----------------|
B|----------------|----------------|----------------|----------------|
G|----------------|----------------|----------------|----------------| Listen for when each
D|------5---------|------5---------|------5---------|------5---------| of these synth lines
A|--3-6---6-3-----|--3-6---6-3-----|--3-6---6-3-----|--3-6---6-3-----| come in
E|------------3---|------------3---|------------3---|------------3---|
 |
e|----------------|----------------|----------------|----------------|
B|13--------------|13--------------|13--------------|13--------------|
G|----12------12--|----12------12--|----12------12--|----12------12--|
D|--------13------|--------13------|--------13------|--------13------|
A|----------------|----------------|----------------|----------------|
E|----------------|----------------|----------------|----------------|
 |
e|8~--------------|----------------|----------------|////////////////|
B|8~--------------|----------------|----------------|////////////////|
G|8~--------------|----------------|----------------|////////////////|
D|----------------|----------------|----------------|----------------|
A|----------------|----------------|----------------|----------------|
E|----------------|----------------|----------------|----------------|

  F7
e|----------------|----------------|----------------|----------------|
B|----------------|----------------|----------------|----------------|
G|----------------|----------------|----------------|----------------|
D|------5---------|------5---------|------5---------|------5---------|
A|--3-6---6-3-----|--3-6---6-3-----|--3-6---6-3-----|--3-6---6-3-----|
E|------------3---|------------3---|------------3---|------------3---|
 |
e|----------------|----------------|----------------|----------------|
B|----------------|----------------|----------------|----------------|
G|14--12------12--|14--12------12--|14--12------12--|14--12------12--|
D|--------13------|--------13------|--------13------|--------13------|
A|----------------|----------------|----------------|----------------|
E|----------------|----------------|----------------|----------------|

e|15~-------------|----------------|----------------|\\\\\\\\\\\\\\\\|
B|16~-------------|----------------|----------------|\\\\\\\\\\\\\\\\|
G|15~-------------|----------------|----------------|\\\\\\\\\\\\\\\\|
D|----------------|----------------|----------------|----------------|
A|----------------|----------------|----------------|----------------|
E|----------------|----------------|----------------|----------------|

[End]
Cmadd9/G

************************************

| /   Slide up
| \   Slide down
| ~   Vibrato

************************************

            
            
Suggest correction
Creating personal tab
Creating personal tab
You can edit any tab online and save it as your Personal.

You can edit, replace or remove any tab part or add personal notes – all changes will be seen only by you.

Personal tabs can be accessed anytime from any device, even offline.
Learn more »
comments
print report bad tab
2 comments total.
+1 reply
ErikJohnsonConcursus 10 Apr 22, 2017 03:03 AM

great job man, will be using this for my cover of the song!

0 reply
carcxoch 10 Jul 09, 2017 07:39 AM

I love it, thank you very much! Amazing song, Dave did an excellent job. It's my favourite of Spirit, together with So Much Love.

guest
You may want to rate the tab now too:
select rating
Wanna post a correction for this tab? Suggest correction