Oops, an error
Loading. Please wait.

Damaged People Tab

4,130 views 18 this week
no commentswrite comment
1 2 3 4 5
please rate
add to favorites
launch autoscroll
font size
0
reset
how to read this tab
guitar tuner
Tab Pro tools
  • play this tab
  • loop segment
  • change instrument
  • show fretboard
  • metronome
×
Best way to learn
"Damaged People"
Autoscroll
slow
fast
+/-
esc
set tempo
stop
Contributor
-------------------------------------------------------------------------------
                         DAMAGED PEOPLE – Depeche Mode
-------------------------------------------------------------------------------
Tabbed by:rémilucie

Tuning:standard

e|-------5-------5-------5-------5-------5-------5-------5-------5-|
B|-----6-------8-------6-------8-------6-------8-------6-------8---|
G|-----------------------------------------------------------------|
D|-----------------------------------------------------------------|
A|-5-5-----5-5-----5-5-----5-5-----5-5-----5-5-----5-5-----5-5-----|
E|-----------------------------------------------------------------|

                                 we're damaged people drawn together
e|-------5-------5-------5-------5-------5-------5-------5-------5-|
B|-----6-------8-------6-------8-------6-------8-------6-------4---|
G|-----------------------------------------------------------------|
D|-----------------------------------------------------------------|
A|-5-5-----5-5-----5-5-----5-5-----5-5-----5-5-----3-3-----0-0-----|
E|-----------------------------------------------------------------|

  by subtleties that we are not aware of
                                disturbed souls playing out forever
e|-------6-------6-------3-----3-8-------5-------5-------5-------5-|
B|-------------3-----------------------6-------8-------6-------4---|
G|-----7---------------5-----5-------------------------------------|
D|-----------------------------------------------------------------|
A|---------------------------------5-5-----5-5-----3-3-----0-0-----|
E|-6-6-----3-3-----0-0-----0---------------------------------------|

   these games that we once thought
                     we would be scared of
e|-------6-------6---------------8---------------6-------3---------|
B|-------------3---------8-----8---------------3-------1-----------|
G|-----7---------------5-----5-------------------------------------|
D|-------------------------------------------------1-1-------------|
A|-----------------------------------------3-3---------------------|
E|-6-6-----3-3-----0-0-----0---------------------------------------|

  when you're in my arms the world makes sense
                              there is no pretence and you're crying
e|-----------------------------------------8-----------------------|
B|---------------6---------------8-------------------8-------------|
G|-----5-8-----5-------7-8-----7---------8---------8-------5-8-----|
D|---5-------5-------9-------9--------10--------10-------5---------|
A|-6-------6-------8-------8-------10--------10--------6-----------|
E|-----------------------------------------------------------------|

  when you're by my side there is no defense    I forget to sense
e|-------------6----------------------------------------8----------|
B|-------6---------------------9---------------8-----------------8-|
G|-----5-----7-------5-8-----5-------7-8-----7---------8-------8---|
D|---5-----5-------5-------5-------9-------9--------10------10-----|
A|-6------6------6-------6-------8-------8-------10-------10-------|
E|-----------------------------------------------------------------|

   and dying
e|---------------------------------------3------6-------3-------8--|
B|---------------6------8------7---5----3------3-------3-------3---|
G|-----5-8-----5------5------5----5----3------3-------3-------3----|
D|---5-------5------5------5-----5---------------------------------|
A|-6-------6------6------6------6-----3----3-------3-------3-------|
E|-----------------------------------------------------------------|

                                 we're damaged people
                                               praying for something
e|---------------------------------------5-------5-------5-------5-|
B|-------------------------------------6-------8-------6-------4---|
G|-----------------------------------------------------------------|
D|-----------------------------------------------------------------|
A|----2-4-4-5h4p5---2-4-4-5h4p5----5-5-----5-5-----3-3-----0-0-----|
E|-5--------------5------------------------------------------------|

 that doesn't come from somewhere deep inside us
                            depraved souls trusting in the one thing
e|-------6-------6-------3-----3-8-------5-------5-------5-------5-|
B|-------------3-----------------------6-------8-------6-------4---|
G|-----7---------------5-----5-------------------------------------|
D|-----------------------------------------------------------------|
A|---------------------------------5-5-----5-5-----3-3-----0-0-----|
E|-6-6-----3-3-----0-0-----0---------------------------------------|

   the one thing that this life has not denied us
e|-------6-------6---------------8---------------6-------3---------|
B|-------------3---------8-----8---------------3-------1-----------|
G|-----7---------------5-----5-------------------------------------|
D|-------------------------------------------------1-1-------------|
A|-----------------------------------------3-3---------------------|
E|-6-6-----3-3-----0-0-----0---------------------------------------|

  when i feel the wormth of your very soul
                                   I forget I'm cold     and crying
e|-----------------------------------------8-----------------------|
B|---------------6---------------8-------------------8-------------|
G|-----5-8-----5-------7-8-----7---------8---------8-------5-8-----|
D|---5-------5-------9-------9--------10--------10-------5---------|
A|-6-------6-------8-------8-------10--------10--------6-----------|
E|-----------------------------------------------------------------|

  when your lips touch mine  and I lose control  I forget I'm old 
e|-------------6----------------------------------------8----------|
B|-------6---------------------9---------------8-----------------8-|
G|-----5-----7-------5-8-----5-------7-8-----7---------8-------8---|
D|---5-----5-------5-------5-------9-------9--------10------10-----|
A|-6------6------6-------6-------8-------8-------10-------10-------|
E|-----------------------------------------------------------------|

   and dying
e|---------------------------------------3------6-------3-------8--|
B|---------------6------8------7---5----3------3-------3-------3---|
G|-----5-8-----5------5------5----5----3------3-------3-------3----|
D|---5-------5------5------5-----5---------------------------------|
A|-6-------6------6------6------6-----3----3-------3-------3-------|
E|-----------------------------------------------------------------|

e|----3----8-----3----8-----3----8-----3----8-----3----8-----3----8|
B|---3----3-----3----3-----3----3-----3----3-----3----3-----3----3-|
G|--3----3-----3----3-----3----3-----3----3-----3----3-----3----3--|
D|-----------------------------------------------------------------|
A|-3----3-----3----3-----3----3-----3----3-----3----3-----3----3---|
E|-----------------------------------------------------------------|

| /  slide up
| \  slide down
| h  hammer-on
| p  pull-off
| ~  vibrato
| +  harmonic
| x  Mute note
===============================================================================

comments
We did not receive enough feedback on this tab! Please rate:
print report bad tab
1 2 3 4 5
I want to post or [tab]
guest
You may want to rate the tab now too:
select rating
Please do not post tabs as comments. Select "correction" instead!