Oops, an error
Loading. Please wait.

Dream On Tab

version 2
version 2

Whole song

Interactive

53,095 views 96 this week
3 commentsread comments
1 2 3 4 5
x 13
add to favorites
launch autoscroll
font size
0
reset
how to read this tab
guitar tuner
Autoscroll
slow
fast
+/-
esc
set tempo
stop
Depeche Mode - "Dream On".
 Tabbed by Lisa R...  plaidmonkey13@hotmail.com.
  
DEPECHE MODE: "Dream On"

Okay this is the first time ive ever tabbed a song.. but im positive it's correct. 


*NOTE* this song is played 1/2 step lower than standard tuning.  it sounds good either way, but to play along
with the music, tune it down.


For the Intro and Verses, play this riff repeatedly.


e|----------------------------------|
B|----------------------------------|
G|----------0-----------------------|
D|--------------2---0---2-------2---|
A|-------2------------------2-------|
E|---0------------------------------|


Between verses, play this riff:

e|----------------------------------------------------|
B|----------------------------------------------------|
G|-----------2-----------2-----------2------------2---|
D|-------2-----------2-----------2------------2-------|
A|---0-----------0-----------3------------3-----------|
E|----------------------------------------------------|


For the chours, you can alternate between Riff #1 and Riff#2... its easy to figure out.


If you want to use chords for the chorus...



D       Am            Em
Can you feel a little love
D       Am            Em
Can you feel a little love
Am          D    
Dream on... Dream on...



It's really easy. Have fun.. and peace out!
 
:: Ultimate Guitar Archive :: 
http://www.ultimate-guitar.com
Suggest correction
comments
print report bad tab
3 comments total.
+1 reply
zeke5 10 Jun 28, 2002 08:00 PM

For the Intro and Verses, play this riff repeatedly.


|----------------------------------|
|----------------------------------|
|----------0-----------------------|
|--------------2---0---2-------2---|
|-------2--------------------------|
|---0-------------------------3----|

0 reply
nauszi 10 Sep 17, 2006 11:02 AM

i don´t think the chords are correct. otherwise it´s fine.

0 reply
dia0369 30 Feb 12, 2008 06:58 AM

I think it sounds more like this:

|------------------------------------------------------------------|
|------------------------------------------------------------------|
|-----------2-----------2-------------------2-----------2----------|
|-------2-----------2-----------2-------2-----------2-----------2--|
|---0-----------0-----------0-------3-----------3-----------3------|
|------------------------------------------------------------------|

guest
You may want to rate the tab now too:
select rating
Wanna post a correction for this tab? Suggest correction