Oops, an error
Loading. Please wait.

Dream On Tab

version 4
version 4

Whole song

Interactive

1,413 views 6 this week
no commentswrite comment
1 2 3 4 5
please rate
add to favorites
launch autoscroll
font size
0
reset
how to read this tab
guitar tuner
Autoscroll
slow
fast
+/-
esc
set tempo
stop
Help us to improve Ultimate-Guitar.com Take our survey!
×
part 1

----------------------|
----------------------|
------0---------------|   X4
---------2-----2------|
---2--------2---------|
-0--------------------|






part 2
----------------------|
----------------------|
-----2---2------------|  X2
---2---2--------------|
----------------------|
-0--------------------|



end

----------------------------------------------0--|
---------------------------------------------0---|
--------0-----------------0-----------------0----|
-------------2-------2---------2-------2---2-----|
---2-------------2-----------------2------2------|
-0---------------------------------------0-------|



repeat 1º and 2º and it is all the song
by IC3D-X
Suggest correction
Give kudos to tab author, rate the tab!
1 2 3 4 5
comments
print report bad tab
guest
You may want to rate the tab now too:
select rating
Please do not post tabs as comments. Select "correction" instead!