Oops, an error
Loading. Please wait.

Dressed In Black Bass Tab

16 views 1 this week
no commentswrite comment
1 2 3 4 5
3 more votes to show rating
add to favorites
launch autoscroll
font size
0
reset
guitar tuner
Autoscroll
slow
fast
+/-
esc
set tempo
stop
Help us to improve Ultimate-Guitar.com Take our survey!
×
Author
Difficulty
novice
[Intro]

G|------------|-----------|-----------|-----------| (x2)
D|------0---0-|-----------|-----0---0-|-----------|
A|--2-----2---|-----1---1-|-2-----2---|-----1---1-|
E|------------|-3-----3---|-----------|-3-----3---|


[Verse 1]

G|--------|------2--|---------|------2--|---------|---------|---------|---------|
D|-----0--|--3------|------0--|--3------|---------|---------|---------|---------|
A|-2------|---------|--2------|---------|--1------|--3---1--|--1------|--3---1--|
E|--------|---------|---------|---------|------4--|---------|------4--|---------|


G|---------|---------|
D|------0--|---------|
A|--2------|------1--|
E|---------|--3------|


[Interlude]

G|------------|-----------|-----------|-----------| 
D|------0---0-|-----------|-----0---0-|-----------|
A|--2-----2---|-----1---1-|-2-----2---|-----1---1-|
E|------------|-3-----3---|-----------|-3-----3---|


[Verse 2]

G|--------|------2--|---------|------2--|---------|---------|---------|---------|
D|-----0--|--3------|------0--|--3------|---------|---------|---------|---------|
A|-2------|---------|--2------|---------|--1------|--3---1--|--1------|--3---1--|
E|--------|---------|---------|---------|------4--|---------|------4--|---------|


G|---------|---------|
D|------0--|---------|
A|--2------|------1--|
E|---------|--3------|


[Interlude]

G|------------|-----------|-----------|-----------| 
D|------0---0-|-----------|-----0---0-|-----------|
A|--2-----2---|-----1---1-|-2-----2---|-----1---1-|
E|------------|-3-----3---|-----------|-3-----3---|


[Verse 3]

G|-----------|-----------|-----------|-----------| 
D|-----0---0-|-----------|-----0---0-|-----------|
A|-2-----2---|-----1---1-|-2-----2---|-----1---1-|
E|-----------|-3-----3---|-----------|-3-----3---|


G|-----------|-----------|-----------|--------|---------| 
D|-----0---0-|-----------|-----0---0-|--------|------3--|
A|-2-----2---|-----1---1-|-2-----2---|--------|--1------|
E|-----------|-3-----3---|-----------|-3---5--|---------|


[Interlude]

G|------------|-----------|-----------|-----------| (x2)
D|------0---0-|-----------|-----0---0-|-----------|
A|--2-----2---|-----1---1-|-2-----2---|-----1---1-|
E|------------|-3-----3---|-----------|-3-----3---|


[Verse 4]

G|--------|------2--|---------|------2--|---------|---------|---------|---------|
D|-----0--|--3------|------0--|--3------|---------|---------|---------|---------|
A|-2------|---------|--2------|---------|--1------|--3---1--|--1------|--3---1--|
E|--------|---------|---------|---------|------4--|---------|------4--|---------|


G|---------|---------|
D|------0--|---------|
A|--2------|------1--|
E|---------|--3------|


[Outro] (repeat until the end)

G|------------|-----------|-----------|-----------| 
D|------0---0-|-----------|-----0---0-|-----------|
A|--2-----2---|-----1---1-|-2-----2---|-----1---1-|
E|------------|-3-----3---|-----------|-3-----3---|



*************************

in regular sequence!

*************************
Suggest correction
Give kudos to tab author, rate the tab!
1 2 3 4 5
comments
print report bad tab
guest
You may want to rate the tab now too:
select rating
Wanna post a correction for this tab? Suggest correction