Oops, an error
Loading. Please wait.

Enjoy The Silence Tab

version 3
version 3

Whole song

13,917 views 9 this week
2 commentsread comments
1 2 3 4 5
accurate
x 3
add to favorites
launch autoscroll
font size
0
reset
how to read this tab
guitar tuner
Autoscroll
slow
fast
+/-
esc
set tempo
stop
Help us to improve Ultimate-Guitar.com Take our survey!
×
Depeche Mode - Enjoy the Silence
================================

Showoff campfire version w/intro synth catch phrase arranged for guitar.
My main aim was to enlighten the simple strumming they usually are bound to while
playing this song with one guitar.

C#madd9		Em		A
x    0		0  x 0		x0   0
======		======		======
|o||o|IV	|o||||VII	||||o|V
||||||		||||o|		|||o||
||oo||		||o|||		||o|||
||||||		||||||		||||||

F#m		Bsus2		C	
		x		x
======		======		======
||||||		||||||		||||o|
o||ooo		|o||oo		||o|||
||||||		||||||		|o|||o
|oo|||		||oo||		||||||


"PRE-INTRO"
===========
    C#sus2				Em
e||---9---------------9---------------|-----------------------------------||
B||o----------------------------------|---12--------------12-------------o||
G||-----------9---------------9-------|-----------9---------------9-------||
D||-------11------11------11------11--|-------11------11------11------11--||
A||o----------------------------------|----------------------------------o||
E||-----------------------------------|-----------------------------------||
      1   &   2   &   3   &   4   &       1   &   2   &   3   &   4   &

INTRO 
=====
You can accentuate the actual melody with upstrokes,
while playing the "bass" with downstrokes.

    C#sus2				Em
e||-----------------------------------|-----------------------------------||
B||o----------------------------------|----------------------------------o||
G||-----------------------8-----------|-----------------------------------||
D||-----------11------11--------------|---------------11----------9-------||
A||o-(7)-(7)--7-------7---7--(7)-(7)--|--(7)-(7)-(7)--7-----------7---7--o||
E||---9---9-------9-----------9---9---|---0---0---0-------0---0-------0---||
      1   &   2   &   3   &   4   &       1   &   2   &   3   &   4   &

    C#sus2				Em
e||-----------------------------------|----------(0)-(0)---------(0)------||
B||o----------------------------------|-----------2---2-----------0------o||
G||-----------2---2-----------1-------|-----------1---1-----------1-------||
D||-----------2---2--(2)------2--(2)--|--(2)-(2)---------(2)-(2)----------||
A||o--4---4---4-------4---4---4---4---|--(2)-(2)---------(2)-(2)------2--o||
E||-----------------------------------|---0---0-----------0---0-------0---||
      1   &   2   &   3   &   4   &       1   &   2   &   3   &   4   &

VERSE 1
=======
[C#sus2] Words like violence
[Em] Break the silence
[A] Come crashing in - Into my little world
[C#sus2] Painful to me
[Em] Pierce right through me
[A] Can't you understand - Oh my little girl

CHORUS
======
[F#m] All I ever wanted
[A] All I ever needed
Is [C#sus2]here in my [Bsus2] arms
[F#m] Words are very [A] unnecessary
[C#sus2] They can only do [C] harm

INTRO

VERSE 2
=======
Vows are spoken
To be broken
Feelings are intense - Words are trivial
Pleasures remain
So does the pain
Words are meaningless - And forgettable

CHORUS
INTRO
2xCHORUS
play INTRO while repeating: "Enjoy the silence"

comments/feedback -> FXMAZE@HOTMAIL.COM
comments
We did not receive enough feedback on this tab! Please rate:
print report bad tab
1 2 3 4 5
2 comments total.
0 reply
stumaster18 1,574 wrote on November 11 2005, 06:13 pm

um...upside down?

0 reply
supermott 49 wrote on April 10 2008, 01:44 pm

this seems like it could be a really great version but I'm wondering if its upside down as well? Any chance for a fix would be awesome

I want to post or [tab]
guest
You may want to rate the tab now too:
select rating
Please do not post tabs as comments. Select "correction" instead!