Oops, an error
Loading. Please wait.

Enjoy The Silence Tab

version 4
version 4

Whole song

95,885 views 156 this week
3 commentsread comments
1 2 3 4 5
x 28
add to favorites
launch autoscroll
font size
0
reset
how to read this tab
guitar tuner
Autoscroll
slow
fast
+/-
esc
set tempo
stop
Help us to improve Ultimate-Guitar.com Take our survey!
×
[Riff 1]

(0:09 - 0:25)

e|--------------------------------------------------|
B|--------------------------------------------------|
G|--------------------------------------------------|
D|-----10----12-----10---------10----12----10-------|
A|-----------------------13----------------------13-|
E|--11----11----11----11----11----11----11----11----|

e|-----------------------------------------|
B|-----------------------------------------|
G|-----------------------------------------|
D|---6---5----10---------6---5----10-------|
A|------------------13-------------------6-|
E|-8---8---11----11----8---8---11----11----|


[Riff 2]

(1:06 - 1:22)

e|----------------------------------------------------------------|
B|----------------------------------------------------------------|
G|----------------------------------------------------------------|
D|-----10----12-----10---------10----12----10-------/\---6-/\---5-|
A|-----------------------13----------------------13-/\-----/\-----|
E|--11----11----11----11----11----11----11----11----/\-8---/\-8---|

e|------------------------------------|
B|------------------------------------|
G|------------------------------------|
D|----10---------6------5----10-------|
A|----------13----------------------6-|
E|-11----11----8------8---11----11----|


[Riff 3] 

(2:16 - 2:32)

e|--------------------------------------------------|
B|--------------------------------------------------|
G|--------------------------------------------------|
D|-----10----12-----10---------10----12----10-------|
A|-----------------------13----------------------13-|
E|--11----11----11----11----11----11----11----11----|

e|-----------------------------------------|
B|-----------------------------------------|
G|-----------------------------------------|
D|---6---5----10---------6---5----10-------|
A|------------------13-------------------6-|
E|-8---8---11----11----8---8---11----11----|


[Riff 4]

(3:09 - 3:43)

e|---------------------------------------------------|
B|---------------------------------------------------|
G|---------------------------------------------------|
D|-----10----12-----13-------------------------------|
A|-----------------------13----13----10----13----10--|
E|--11----11----11----11----11----11----11----11-----| x4
Suggest correction
comments
print report bad tab
3 comments total.
0 reply
Frusciante19 20 Aug 03, 2010 02:47 PM

very nice tab

0 reply
Gussauceda 31 Jul 17, 2013 08:15 PM

Actually it's like this.

e|--------------------------------------------------|
B|--------------------------------------------------|
G|--------------------------------------------------|
D|-----10----12-----10---------10----12----10-------|
A|-----------------------13----------------------6--|
E|--11----11----11----11----11----11----11----6-----|

+1 reply
Gussauceda 31 Jul 17, 2013 08:16 PM

e|-----------------------------------------|
B|-----------------------------------------|
G|-----------------------------------------|
D|---6---5----10---------6---5----10-------|
A|------------------13-------------------6-|
E|-8---8---11----11----8---8---11----6-----|

guest
You may want to rate the tab now too:
select rating
Wanna post a correction for this tab? Suggest correction