Oops, an error
Loading. Please wait.
We have an official Enjoy The Silence tab made by UG professional guitarists. Check out the tab »
×

Enjoy The Silence tab

version 8
version 8

Whole song

2,246 views 30 this week
no commentswrite comment
1 2 3 4 5
x 4
add to favorites
×
Save as Personal and add changes to this tab that will be seen only by you. Learn more ›
×
You can save this tab as Personal to edit and correct it or add notes. All changes will be seen only by you. Learn more »
launch autoscroll
font size
0
reset
how to read this tab
guitar tuner
backing track
0:00
0:00
edit
Autoscroll
slow
fast
+/-
esc
set tempo
stop
Author
Difficulty
About this tab version
Changed to Capo I. Much easier to play while matching the key of the original composition. Was this info helpful? Yes No
Standard Tuning with Capo 1

[Intro] 
Bm D (2x)

[Riff A]
e|-----------------|-----------------|----------------|----------------|
B|-----------------|-----------------|----------------|----------------|
G|---4---6---------|---4---2---------|---4---6--------|---4---2--------|
D|-0---0-----------|-0---0-----------|-0---0----------|-0---0----------|
A|-----------------|-----------------|----------------|----------------|
E|-----------------|-----------------|----------------|----------------|

e|-----------------|-----------------|----------------|----------------|
B|-----------------|-----------------|----------------|----------------|
G|-----------------|---4-------------|----------------|---4---2--------|
D|---5---4---------|-------7---------|---5---4--------|----------------|
A|-5---5-----------|-5---5-----------|-2---2----------|-2---2----------|
E|-----------------|-----------------|----------------|----------------|


[Verse]
Bm
Words like violence
D/A
Break the silence
G
Come crashing in
Into my little world
Bm
Painful to me
D/A
Pierce right through me
G
Can't you understand
Oh my little girl
Em
All I ever wanted
G
All I ever needed
   Bm     D
Is here in my arms
Em            G
Words are very unnecessary
Bm              Bb
They can only do harm

[Interlude] 
Bm D (x4)
 
[Riff A]
e|-----------------|-----------------|----------------|----------------|
B|-----------------|-----------------|----------------|----------------|
G|---4---6---------|---4---2---------|---4---6--------|---4---2--------|
D|-0---0-----------|-0---0-----------|-0---0----------|-0---0----------|
A|-----------------|-----------------|----------------|----------------|
E|-----------------|-----------------|----------------|----------------|

e|-----------------|-----------------|----------------|----------------|
B|-----------------|-----------------|----------------|----------------|
G|-----------------|---4-------------|----------------|---4---2--------|
D|---5---4---------|-------7---------|---5---4--------|----------------|
A|-5---5-----------|-5---5-----------|-2---2----------|-2---2----------|
E|-----------------|-----------------|----------------|----------------|

Bm
Vows are spoken
D/A
To be broken
G
Feelings are intense
Words are trivial
Bm
Pleasures remain
D/A
So does the pain
G
Words are meaningless
And forgettable
Em
All I ever wanted
G
All I ever needed
   Bm     D
Is here in my arms
Em            G
Words are very unnecessary
Bm              Bb
They can only do harm

[Guitar Solo] 
Em G Bm D (x2)

[Riff B] (Repeat x2)  
e|-------8-----10--|------11---------|----------------|----------------|
B|-----------------|-------------11--|------11----8---|------11----8---|
G|----8-----8------|---8-----8-------|---8-----8------|---8-----8------|
D|-----------------|-----------------|----------------|----------------|
A|-----------------|-----------------|----------------|----------------|
E|-----------------|-----------------|----------------|----------------|
               
[Interlude] 
Bm D (x4)
[Riff A]
e|-----------------|-----------------|----------------|----------------|
B|-----------------|-----------------|----------------|----------------|
G|---4---6---------|---4---2---------|---4---6--------|---4---2--------|
D|-0---0-----------|-0---0-----------|-0---0----------|-0---0----------|
A|-----------------|-----------------|----------------|----------------|
E|-----------------|-----------------|----------------|----------------|

e|-----------------|-----------------|----------------|----------------|
B|-----------------|-----------------|----------------|----------------|
G|-----------------|---4-------------|----------------|---4---2--------|
D|---5---4---------|-------7---------|---5---4--------|----------------|
A|-5---5-----------|-5---5-----------|-2---2----------|-2---2----------|
E|-----------------|-----------------|----------------|----------------|
                                                       
Em
All I ever wanted
G
All I ever needed
   Bm     D
Is here in my arms
Em            G
Words are very unnecessary
Bm              Bb
They can only do harm
Em
All I ever wanted
G
All I ever needed
   Bm     D
Is here in my arms
Em            G
Words are very unnecessary
Bm              Bb
They can only do harm

[Outro] 
Em G Bm D (x8)

[Riff C] 
(Repeat x8, 8th time Fade Out)
e|-----------------|-----------------|----------------|----------------|
B|-----------------|-----------------|----------------|----------------|
G|---4---6---------|---7---2---------|----------------|----------------|
D|-0---0-----------|-0---0-----------|-----7-----4----|-----7-----4----|
A|-----------------|-----------------|--5-----5-------|--5-----5-------|
E|-----------------|-----------------|----------------|----------------|

            
            
Suggest correction
Creating personal tab
Creating personal tab
You can edit any tab online and save it as your Personal.

You can edit, replace or remove any tab part or add personal notes – all changes will be seen only by you.

Personal tabs can be accessed anytime from any device, even offline.
Learn more »
comments
print report bad tab
guest
You may want to rate the tab now too:
select rating
Wanna post a correction for this tab? Suggest correction