Oops, an error
Loading. Please wait.
We have an official Enjoy The Silence tab made by UG professional guitarists. Check out the tab »
×

Enjoy The Silence tab

version 9
version 9

Whole song

226 views 1 this week
no commentswrite comment
1 2 3 4 5
3 more votes to show rating
add to favorites
×
Save as Personal and add changes to this tab that will be seen only by you. Learn more ›
×
You can save this tab as Personal to edit and correct it or add notes. All changes will be seen only by you. Learn more »
launch autoscroll
font size
0
reset
how to read this tab
guitar tuner
backing track
0:00
0:00
edit
Autoscroll
slow
fast
+/-
esc
set tempo
stop
Author
Difficulty
About this tab version
Whole song of Enjoy The Silence with the riff just like Matin L. Gore plays it live. Was this info helpful? Yes No
[Intro] (x2) 
(Cm Eb)
  Cm             Eb              Cm            Eb
e|------------------------------|-----------------------------|
B|------------------------------|-----------------------------|
G|------------------------------|-----------------------------|
D|-----10----12-------10--------|-----10----12------10--------|
A|--------------------------13--|-------------------------13--|
E|--11----11-------11----11-----|--11----11------11----11-----|

  Cm         Eb           Cm         Eb        
e|-----------------------|-----------------------|
B|-----------------------|-----------------------|
G|----------------5------|----------------5------|
D|-----6---5----------8--|-----6---5-------------|
A|-------------/6---5----|-------------/6---6-6--|
E|--/8---6---------------|--/8---6----------6-6--|

[Verse]

Cm                   Ebm
 Words like violence,   break the silence
Ab
 Come crashing in into my little world
Cm             Ebm
 Painful to me,   pierce right through me
Ab
 Can't you understand oh my little girl

[Chorus]

Fm                 Ab
 All I ever wanted,  all I ever needed
    Cm      Eb
 Is here in my arms
Fm              Ab
 Words are very unnecessary
 Cm            B
 They can only do harm

[Instrumental]

   Cm             Eb              Cm            Eb
e|------------------------------|-----------------------------|
B|------------------------------|-----------------------------|
G|------------------------------|-----------------------------|
D|-----10----12-------10--------|-----10----12------10--------|
A|--------------------------13--|-------------------------13--|
E|--11----11-------11----11-----|--11----11------11----11-----|

  Cm         Eb           Cm         Eb        
e|-----------------------|-----------------------|
B|-----------------------|-----------------------|
G|----------------5------|----------------5------|
D|-----6---5----------8--|-----6---5-------------|
A|-------------/6---5----|-------------/6---6-6--|
E|--/8---6---------------|--/8---6----------6-6--|

[Verse]

Cm               Ebm
 Vows are spoken   to be broken
Ab
 Feelings are intense, words are trivial
Cm                Ebm
 Pleasures remain,   so does the pain
Ab
 Words are meaningless and forgettable

[Chorus]

Fm                 Ab
 All I ever wanted,  all I ever needed
    Cm      Eb
 Is here in my arms
Fm              Ab
 Words are very unnecessary
 Cm            B
 They can only do harm

[Outro]

  Fm             Ab              Cm           Eb
e|----------------------------|-----------------------------|
B|----------------------------|-----------------------------|
G|----------------------------|-----------------------------| (2x)
D|-----10----12-----13--------|-----------------------------|
A|------------------------13--|-----13----10------13----10--|
E|--11----11-----11----11-----|--11----11------11----11-----|

[Instrumental]

   Cm             Eb              Cm            Eb
e|------------------------------|-----------------------------|
B|------------------------------|-----------------------------|
G|------------------------------|-----------------------------|
D|-----10----12-------10--------|-----10----12------10--------|
A|--------------------------13--|-------------------------13--|
E|--11----11-------11----11-----|--11----11------11----11-----|

  Cm         Eb           Cm         Eb        
e|-----------------------|-----------------------|
B|-----------------------|-----------------------|
G|----------------5------|----------------5------|
D|-----6---5----------8--|-----6---5-------------|
A|-------------/6---5----|-------------/6---6-6--|
E|--/8---6---------------|--/8---6----------6-6--|

[Chorus] (x2)

Fm                 Ab
 All I ever wanted,  all I ever needed
    Cm      Eb
 Is here in my arms
Fm              Ab
 Words are very unnecessary
 Cm            B
 They can only do harm

[Outro]

  Fm             Ab              Cm           Eb
e|----------------------------|-----------------------------|
B|----------------------------|-----------------------------|
G|----------------------------|-----------------------------| 
D|-----10----12-----13--------|-----------------------------|
A|------------------------13--|-----13----10------13----10--|
E|--11----11-----11----11-----|--11----11------11----11-----|

(Repeat Outro until fade out.....)

N.C.
 Enjoy the silence.


************************************

| /  Slide up

************************************

            
            
Suggest correction
Creating personal tab
Creating personal tab
You can edit any tab online and save it as your Personal.

You can edit, replace or remove any tab part or add personal notes – all changes will be seen only by you.

Personal tabs can be accessed anytime from any device, even offline.
Learn more »
Give kudos to tab author, rate the tab!
1 2 3 4 5
comments
print report bad tab
guest
You may want to rate the tab now too:
select rating
Wanna post a correction for this tab? Suggest correction