Oops, an error
Loading. Please wait.

Fly On The Windscreen Bass Tab

version 1
version 1

Whole song

Interactive

46 views 1 this week
no commentswrite comment
1 2 3 4 5
3 more votes to show rating
add to favorites
launch autoscroll
font size
0
reset
guitar tuner
Autoscroll
slow
fast
+/-
esc
set tempo
stop
Help us to improve Ultimate-Guitar.com Take our survey!
×
Author
Difficulty
intermediate
Bass Start - 00:05


[Intro]

G|------------|------------|------------|------------| (x2)
D|------------|------------|------------|------------|
A|---5-7------|------------|---5-7------|------------|
E|-0-----0--0-|-0-3--0---0-|-0-----0--0-|-0-3--0---0-|


[Verse 1]

G|------------|------------|------------|------------| (x4)
D|------------|------------|------------|------------|
A|---5-7------|------------|---5-7------|------------|
E|-0-----0--0-|-0-3--0---0-|-0-----0--0-|-0-3--0---0-|


G|------------|------------|------------|------------|
D|---0-2------|------------|---2-4------|------------|
A|------------|---0--------|------------|---0--------|
E|-0-----2--2-|-2----2---2-|-2-----2--2-|-2----2---2-|


[Interlude]

G|------------|------------|------------|------------| (x4)
D|------------|------------|------------|------------|
A|---5-7------|------------|---5-7------|------------|
E|-0-----0--0-|-0-3--0---0-|-0-----0--0-|-0-3--0---0-|


[Verse 2]

G|------------|------------|------------|------------| (x4)
D|------------|------------|------------|------------|
A|---5-7------|------------|---5-7------|------------|
E|-0-----0--0-|-0-3--0---0-|-0-----0--0-|-0-3--0---0-|


G|------------|------------|------------|------------|
D|---0-2------|------------|---2-4------|------------|
A|------------|---0--------|------------|---0--------|
E|-0-----2--2-|-2----2---2-|-2-----2--2-|-2----2---2-|


[Chorus]

G|-------0--0-|------------|------------|------------|
D|---2-4------|---5--------|-----2------|---6--------|
A|------------|------------|---5--------|------------|
E|-2----------|-3----3---3-|-3-----4--4-|-4----4---4-|


G|------------|---6--------|------------|---5--------|
D|------------|------------|------------|------------|
A|---6-7-4--4-|-4----4---4-|-4-6-7-3--3-|-3----3---3-|
E|-4----------|------------|------------|------------|


G|------------|------------|------------|------------|
D|-----2------|---5--------|-----2------|---6--------|
A|-3-5--------|------------|---5--------|------------|
E|-------3--3-|-3----3---3-|-3-----4--4-|-4----4---4-|


G|------------|---6--------|------------|---5--------|-------|
D|------------|------------|------------|------------|-----2-|
A|---6-7-4--4-|-4----4---4-|-4-6-7-3--3-|-3----3---3-|-3-5---|
E|-4----------|------------|------------|------------|-------|


[Interlude]

G|----------------|----------------|----------------|----------------|
D|----------------|----------------|----------------|----------------|
A|----------------|----------------|----------------|----------------|
E|----------------|----------------|----------------|----------------|


G|------------|------------|------------|------------| (x3)
D|------------|------------|------------|------------|
A|---5-7------|------------|---5-7------|------------|
E|-0-----0--0-|-0-3--0---0-|-0-----0--0-|-0-3--0---0-|


[Verse 3]

G|------------|------------|------------|------------| (x4)
D|------------|------------|------------|------------|
A|---5-7------|------------|---5-7------|------------|
E|-0-----0--0-|-0-3--0---0-|-0-----0--0-|-0-3--0---0-|


G|------------|------------|------------|------------|
D|---0-2------|------------|---2-4------|------------|
A|------------|---0--------|------------|---0--------|
E|-0-----2--2-|-2----2---2-|-2-----2--2-|-2----2---2-|


[Chorus]

G|-------0--0-|------------|------------|------------|
D|---2-4------|---5--------|-----2------|---6--------|
A|------------|------------|---5--------|------------|
E|-2----------|-3----3---3-|-3-----4--4-|-4----4---4-|


G|------------|---6--------|------------|---5--------|
D|------------|------------|------------|------------|
A|---6-7-4--4-|-4----4---4-|-4-6-7-3--3-|-3----3---3-|
E|-4----------|------------|------------|------------|


G|------------|------------|------------|------------|
D|-----2------|---5--------|-----2------|---6--------|
A|-3-5--------|------------|---5--------|------------|
E|-------3--3-|-3----3---3-|-3-----4--4-|-4----4---4-|


G|------------|---6--------|------------|---5--------|-------|
D|------------|------------|------------|------------|-----2-|
A|---6-7-4--4-|-4----4---4-|-4-6-7-3--3-|-3----3---3-|-3-5---|
E|-4----------|------------|------------|------------|-------|


[Interlude]

G|----------------|----------------|----------------|----------------| (x2)
D|----------------|----------------|----------------|----------------|
A|----------------|----------------|----------------|----------------|
E|----------------|----------------|----------------|----------------|


[Verse 4]

G|----------------|----------------|----------------|----------------| (x4)
D|----------------|----------------|----------------|----------------|
A|----------------|----------------|----------------|----------------|
E|----------------|----------------|----------------|----------------|


G|------------|------------|------------|------------|
D|---0-2------|------------|---2-4------|------------|
A|------------|---0--------|------------|---0--------|
E|-0-----2--2-|-2----2---2-|-2-----2--2-|-2----2---2-|


[Chorus]

G|-------0--0-|------------|------------|------------|
D|---2-4------|---5--------|-----2------|---6--------|
A|------------|------------|---5--------|------------|
E|-2----------|-3----3---3-|-3-----4--4-|-4----4---4-|


G|------------|---6--------|------------|---5--------|
D|------------|------------|------------|------------|
A|---6-7-4--4-|-4----4---4-|-4-6-7-3--3-|-3----3---3-|
E|-4----------|------------|------------|------------|


G|------------|------------|------------|------------|
D|-----2------|---5--------|-----2------|---6--------|
A|-3-5--------|------------|---5--------|------------|
E|-------3--3-|-3----3---3-|-3-----4--4-|-4----4---4-|


G|------------|---6--------|------------|---5--------|
D|------------|------------|------------|------------|
A|---6-7-4--4-|-4----4---4-|-4-6-7-3--3-|-3----3---3-|
E|-4----------|------------|------------|------------|


[Instrumental] (x2)

G|------------|------------|------------|------------|
D|-----2------|---5--------|-----2------|---6--------|
A|-3-5--------|------------|---5--------|------------|
E|-------3--3-|-3----3---3-|-3-----4--4-|-4----4---4-|


G|------------|---6--------|------------|---5--------|
D|------------|------------|------------|------------|
A|---6-7-4--4-|-4----4---4-|-4-6-7-3--3-|-3----3---3-|
E|-4----------|------------|------------|------------|


[Chorus] 

G|------------|------------|------------|------------|
D|-----2------|---5--------|-----2------|---6--------|
A|-3-5--------|------------|---5--------|------------|
E|-------3--3-|-3----3---3-|-3-----4--4-|-4----4---4-|


G|------------|---6--------|------------|---5--------|
D|------------|------------|------------|------------|
A|---6-7-4--4-|-4----4---4-|-4-6-7-3--3-|-3----3---3-|
E|-4----------|------------|------------|------------|


G|------------|------------|------------|------------|
D|-----2------|---5--------|-----2------|---6--------|
A|-3-5--------|------------|---5--------|------------|
E|-------3--3-|-3----3---3-|-3-----4--4-|-4----4---4-|


G|------------|---6--------|------------|---5--------|-------|
D|------------|------------|------------|------------|-----2-|
A|---6-7-4--4-|-4----4---4-|-4-6-7-3--3-|-3----3---3-|-3-5---|
E|-4----------|------------|------------|------------|-------|


[Outro]

G|----------------|----------------|----------------|----------------| (x2)
D|----------------|----------------|----------------|----------------|
A|----------------|----------------|----------------|----------------|
E|----------------|----------------|----------------|--------------0-|


G|----------------|----------------|----------------|----------------|
D|----------------|----------------|----------------|----------------|
A|----------------|----------------|----------------|----------------|
E|----------------|----------------|----------------|--------------2-|


G|----------------|----------------|----------------|----------------| 
D|----------------|----------------|----------------|----------------|
A|----------------|----------------|----------------|----------------|
E|----------------|----------------|----------------|--------------0-|



************************

in regular sequence!

************************
Suggest correction
Give kudos to tab author, rate the tab!
1 2 3 4 5
comments
print report bad tab
guest
You may want to rate the tab now too:
select rating
Wanna post a correction for this tab? Suggest correction